Oops, an error
Loading. Please wait.

Sabotage Bass

version 4
version 4

Whole song

Interactive

135,396 views 6 this week
8 commentsread comments
1 2 3 4 5
x 19
add to favorites
launch autoscroll
font size
0
reset
guitar tuner
backing track
0:00
0:00
×
Best way to learn
"Sabotage"
Autoscroll
slow
fast
+/-
esc
set tempo
stop
Author
Difficulty
intermediate
[Intro]
(Maderate Hip-Hop Q=80)
(4/4)
(Gtrs 1, 2)
   E  S  S  S   S  S  S  S  S  S  S  S  S  S  S    E  S  S  S   S  S  S  S  S  S  S  S  S  E

G|----11--------11-------11-------11-------11----|----11--------11-------11-------11-------11-|
D|-----------------------------------------------|--------------------------------------------|
A|-11----11-11-----11-11----11-11----11-11----11-|-11----11-11-----11-11----11-11----11-11----|
E|-----------------------------------------------|--------------------------------------------|

(Gtr 3)
   E  E     H.                                     E  E     H.

G|--x--------------------------------------------|--x-----------------------------------------|
D|-----------------------------------------------|--------------------------------------------|
A|--x--------------------------------------------|--x-----------------------------------------|
E|-----------------------------------------------|--------------------------------------------|

   E    S  S  S  S  S  S  S  S  S  S  S  S  E    E    S  S  S  S  S  S  S  S  S  S  S  S  E

G|------11-------11-------11-------11-------11-|------11-------11-------11-------11-------11----|
D|---------------------------------------------|------------------------------------------------|
A|-11------11-11----11-11----11-11----11-11----|-11------11-11----11-11----11-11----11-11-------|
E|---------------------------------------------|------------------------------------------------|

   S S  E     E     S  S  H                      S S  E     E     S  S  H

G|--x-x--------------x--x----------------------|--x-x--------------x--x-------------------------|
D|---------------------------------------------|------------------------------------------------|
A|--x-x--------------x--x----------------------|--x-x--------------x--x-------------------------|
E|---------------------------------------------|------------------------------------------------|


   E    S  S  S  S  S  S  S  S  S  S  S  S  S     +S

G|------11-------11-------11-------11-------11b13-(11)-|
D|-----------------------------------------------------|
A|-11------11-11----11-11----11-11----11-11------------|
E|-----------------------------------------------------|

   S S  E     E     S  S  H

G|--x-x--------------x--x------------------------------|
D|-----------------------------------------------------|
A|--x-x--------------x--x------------------------------|
E|-----------------------------------------------------|


   E    S  S  S  S  E   S S S S S S E

G|------11-------11--------------------|
D|-------------------------------4---9-|
A|-11------11-11----11-------4h6---6---|
E|-----------------------4h7-----------|

   S S  E     E     S S H

G|--x-x--------------x-x---------------|
D|-------------------------------------|
A|--x-x--------------x-x---------------|
E|-------------------------------------|

[Verse]
    $
     E  S  S  S  S  S  S  S  S  S  S  S  S  E

G|-----11-------11-------11-------11-------11-|
D|o-------------------------------------------|
A|o-11----11-11----11-11----11-11----11-11----|
E|--------------------------------------------|

   E  S  S  S  S  S  S  S  S  S  S  S  S  E

G|----11-------11-------11-------11-------11--|
D|--------------------------------------------|
A|-11----11-11----11-11----11-11----11-11-----|
E|--------------------------------------------|


   E  S  S  S  S  S  S  S  S  S  S  S  S  S     +S

G|----11-------11-------11-------11-------11b13-(11)-|
D|---------------------------------------------------|
A|-11----11-11----11-11----11-11----11-11------------|
E|---------------------------------------------------|


                                  To Coda

   E  S  S  S  S  S  S  S  S  S  S  S  S  E

G|----11-------11-------11-------11-------11--|
D|-------------------------------------------o|
A|-11----11-11----11-11----11-11----11-11----o|
E|--------------------------------------------|

 [Chorus]
    E    S  S  S  S  S  S  S  S  S  E.  E
G|------11-------11-------11-------11--11-|
D|----------------------------------------|
A|-11------11-11----11-11----11-11--------|
E|----------------------------------------|

(Gtr 3)
   S S  E     E     S  S  H

G|--x-x--------------x--x-----------------|
D|----------------------------------------|
A|--x-x--------------x--x-----------------|
E|----------------------------------------|

    E    S  S  S  S  S  S  S  S  S  E.  E
G|------11-------11-------11-------11--11-|
D|----------------------------------------|
A|-11------11-11----11-11----11-11--------|
E|----------------------------------------|

   S S  E     E     S  S  H

G|--x-x--------------x--x-----------------|
D|----------------------------------------|
A|--x-x--------------x--x-----------------|
E|----------------------------------------|

    E    S  S  S  S  S  S  S  S  S  E.  E
G|------11-------11-------11-------11--11-|
D|----------------------------------------|
A|-11------11-11----11-11----11-11--------|
E|----------------------------------------|

   S S  E     E     S  S  H

G|--x-x--------------x--x-----------------|
D|----------------------------------------|
A|--x-x--------------x--x-----------------|
E|----------------------------------------|

   E    S  S  S  S  S  S S S S S S S E

G|------11-------11---------------------|
D|--------------------------------4---9-|
A|-11------11-11----11-11-----4h6---6---|
E|------------------------4h7-----------|

   S S  E     E     S  S H

G|--x-x--------------x--x---------------|
D|--------------------------------------|
A|--x-x--------------x--x---------------|
E|--------------------------------------|

   E  S  S  S  S  S  S  S  S  S  S  S  S  E    E  S  S  S  S  S  S  S  S  S  S  S  S  E

G|----11-------11-------11-------11-------11-|----11-------11-------11-------11-------11-|
D|-------------------------------------------|-------------------------------------------|
A|-11----11-11----11-11----11-11----11-11----|-11----11-11----11-11----11-11----11-11----|
E|-------------------------------------------|-------------------------------------------|


   E  S  S  S  S  S  S  S  S  S  S  S  S  E    E  S  S  S  S  S  S  S  S  S  S  S  S  E

G|----11-------11-------11-------11-------11-|----11-------11-------11-------11-------11----|
D|-------------------------------------------|----------------------------------------------|
A|-11----11-11----11-11----11-11----11-11----|-11----11-11----11-11----11-11----11-11-------|
E|-------------------------------------------|----------------------------------------------|


[Guitar Break]
  Wx3          Q.    E     +S  S S S S S E

G|------------|------13b15-(13)-------------|
D|------------|-----------------------------|
A|------------|-----------------4---4-6-4-6-|
E|------------|-------------------7---------|

[Verse]
   E  S  S  S  S  S  S  S  S  S  S  S  S  E    E  S  S  S  S  S  S  S  S  S  S  S  S  E

G|----11-------11-------11-------11-------11-|----11-------11-------11-------11-------11-|
D|-------------------------------------------|-------------------------------------------|
A|-11----11-11----11-11----11-11----11-11----|-11----11-11----11-11----11-11----11-11----|
E|-------------------------------------------|-------------------------------------------|


   E  S  S  S  S  S  S  S  S  S  S  S  S  E    E  S  S  S  S  S  S  S  S  S  S  S  S  E

G|----11-------11-------11-------11-------11-|----11-------11-------11-------11-------11----|
D|-------------------------------------------|----------------------------------------------|
A|-11----11-11----11-11----11-11----11-11----|-11----11-11----11-11----11-11----11-11-------|
E|-------------------------------------------|----------------------------------------------|

[Chorus]
   E    S  S  S  S  S  S  S  S  S  S  S  S  E    E    S  S  S  S  S  S  S  S  S  S  S  S  E

G|------11-------11-------11-------11-------11-|------11-------11-------11-------11-------11-|
D|---------------------------------------------|---------------------------------------------|
A|-11------11-11----11-11----11-11----11-11----|-11------11-11----11-11----11-11----11-11----|
E|---------------------------------------------|---------------------------------------------|

(Gtr 3)

   S S  E     E     S  S  H                      S S  E     E     S  S  H

G|--x-x--------------x--x----------------------|--x-x--------------x--x----------------------|
D|---------------------------------------------|---------------------------------------------|
A|--x-x--------------x--x----------------------|--x-x--------------x--x----------------------|
E|---------------------------------------------|---------------------------------------------|


   E    S  S  S  S  S  S  S  S  S  S  S  S  E    E    S  S  S  S  S  S H      H.      Q

G|------11-------11-------11-------11-------11-|------11-------11------------|-------------|
D|---------------------------------------------|-----------------------------|-------------|
A|-11------11-11----11-11----11-11----11-11----|-11------11-11----11-11------|---------0S==|
E|---------------------------------------------|-----------------------------|-------------|

   S S  E     E     S  S  H                      S S  E     E     S  S H      W

G|--x-x--------------x--x----------------------|--x-x--------------x--x------|-------------|
D|---------------------------------------------|-----------------------------|-------------|
A|--x-x--------------x--x----------------------|--x-x--------------x--x------|-------------|
E|---------------------------------------------|-----------------------------|-------------|

[Bass Solo]

   E  S  S  S  S  S  S  S  S  S  S  S  S  E    E  S  S  S  S  S  S  S  S  S  S  S  S  E

G|----11-------11-------11-------11-------11-|----11-------11-------11-------11-------11-|
D|-------------------------------------------|-------------------------------------------|
A|-11----11-11----11-11----11-11----11-11----|-11----11-11----11-11----11-11----11-11----|
E|-------------------------------------------|-------------------------------------------|


   S  S  S  S  S  S  S  S  S  S  S  S  S  S  S  S    S  S  S  S  S  S  E  S S S S S S E

G|-------------11-------11-------11----11-11-------|-------11----11-11--------------------|
D|-------------------------------------------------|-------------------------------4---9--|
A|-11-11-11-11----11-11----11-11----11-------11-11-|-11-11----11-------11\-----4h6---6----|
E|-------------------------------------------------|-----------------------4h7------------|

[Bridge]

   S  S  S  S  S  S  S  S  S  S  S  S  S  E.    E  S  S  S  S  S  S S S S S S S E

G|-------------11-------11-------11-------11--|----11-------11---------------------|
D|--------------------------------------------|------------------------------4---9-|
A|-11-11-11-11----11-11----11-11----11-11-----|-11----11-11----11-11-----4h6---6---|
E|--------------------------------------------|----------------------4h7-----------|


   S  S  S  S  S  S  S  S  S  S  S  S  S  E.    S  S  S  S  S  S  E S S S S S S E

G|-------------11-------11-------11-------11--|-------------11------------------------|
D|--------------------------------------------|------------------------------4--------|
A|-11-11-11-11----11-11----11-11----11-11-----|-11-11-11-11----11-11-----4h6---6-6----|
E|--------------------------------------------|----------------------4h7--------------|


   S  S  S  S  S  S  S  S  S  S  S  S  S  E.    S  S  S  S  S  S  S  S  E S S S S E

G|-------------11-------11-------11-------11--|-------------11-------11--------------|
D|--------------------------------------------|--------------------------------4---9-|
A|-11-11-11-11----11-11----11-11----11-11-----|-11-11-11-11----11-11----11-4h6---6---|
E|--------------------------------------------|--------------------------------------|


   S  S  S  S  S  S  S  S  S  S  S  S  S  E.    E  S  S  S  S  S  S S S S S S S E

G|-------------11-------11-------11-------11--|----11-------11------------------------|
D|--------------------------------------------|------------------------------4---9----|
A|-11-11-11-11----11-11----11-11----11-11-----|-11----11-11----11-11-----4h6---6------|
E|--------------------------------------------|----------------------4h7--------------|

[Drum Break]
   W                        W                       W

G|-------------------------|----------------------|-------------------------|
D|-------------------------|----------------------|-------------------------|
A|-------------------------|----------------------|-------------------------|
E|-------------------------|----------------------|-------------------------|

(Gtr 4)

    Q.        H        +E    Q.       H       +E     Q.        H        +E

e|-------------------------|----------------------|-------------------------|
B|-------------------------|----------------------|-------------------------|
G|-------------------------|----------------------|-------------------------|
D|-------------------------|----------------------|-------------------------|
A|-11--------10-------(10)-|-9--------8-------(8)-|-11--------10-------(10)-|
E|-------------------------|----------------------|-------------------------|

(Gtr 3)

   S  S E E  S S H          S  S E E S S H          S  S E E  S S H

G|--x--x------x-x----------|-x--x-----x-x---------|--x--x------x-x----------|
D|-------------------------|----------------------|-------------------------|
A|--x--x------x-x----------|-x--x-----x-x---------|--x--x------x-x----------|
E|-------------------------|----------------------|-------------------------|

             D.S. al Coda         &
  H            S S S S S E.       W

G|-------------------------------|------------------*|
D|----------------------4-9------|------------------*|
A|------------------4h6----------|------------------*|
E|--------------4h7--------------|------------------*|

 | Q.       H                +E          W

e|-------------------------------|------------------*|
B|-------------------------------|------------------*|
G|-------------------------------|------------------*|
D|-------------------------------|------------------*|
A|-9--------8----------------(8)-|------------------*|
E|-------------------------------|------------------*|

  S  S E E S S H                  S S E E S S H

G|-x--x-----x-x------------------|-x-x-----x-x------*|
D|-------------------------------|------------------*|
A|-x--x-----x-x------------------|-x-x-----x-x------*|
E|-------------------------------|------------------*|



************************************

| x    Dead note
| (n)  Ghost note
| b    Bend
| h    Hammer-on
| \    Slide down
| *    Natural harmonic
  
************************************
Suggest correction
comments
print report bad tab
8 comments total. Showing first comments.
+1 reply
Synyster_Entry 10 Mar 22, 2008 06:38 PM

Awesome!! 5 Stars dude!

+2 reply
djmorris 92 Aug 04, 2008 12:14 PM

i think jocabs can't play guitar.
I think the tab is solid.

+2 reply
djmorris 92 Aug 04, 2008 12:17 PM

also, i didn't see in there, the bendy part at around 1:09
i'm thinking this on the B string

----12b----13b----14b----

guest
You may want to rate the tab now too:
select rating
Wanna post a correction for this tab? Suggest correction