Oops, an error
Loading. Please wait.

The Mix-Up Bass Tab

952 views 1 this week
no commentswrite comment
1 2 3 4 5
1 last vote to show rating
add to favorites
launch autoscroll
font size
0
reset
guitar tuner
×
Best way to learn
"The Mix-up"
Autoscroll
slow
fast
+/-
esc
set tempo
stop
Author
Difficulty
Song: The Mix Up (One of two bonus tracks on the japapnese release of the album “The Mix Up”)
Artist: Beastie Boys
A really rare song, but definitely worth a listen, I love it!
G|-----------------------------------|
D|--10-8-----------------------------|
A|-------10-8-6-8--3-6-3-------------|   Fill
E|-----------------------------------|

G|-------------------------------------------------------|
D|-------------------------------------------------------|
A|---1-3--1-3--1-3--1-3--1-3--1-3--1-3--1-3--------------|    Verse
E|-------------------------------------------------------|

G|-------------------------------------------------------|
D|--------1-3--4-3-1-----------1-3--4-3-1----------------|
A|---1-3---------------3---1-3---------------3-----------|     Chorus
E|-------------------------------------------------------|

G|------------------------------------|
D|------------------------------------|
A|-------10-8----------6-8------------|   Fill 2
E|------------10-8--8-------8---------|

Listen to the song for timing, it’s this but repeated, with some odd parts where 
he fills in with the guitar in the middle.

Fishman
Suggest correction
Give kudos to tab author, rate the tab!
1 2 3 4 5
comments
print report bad tab
guest
You may want to rate the tab now too:
select rating
Wanna post a correction for this tab? Suggest correction