Oops, an error
Loading. Please wait.

Triple Trouble Bass

1,378 views 1 this week
1 commentread comment
1 2 3 4 5
x 4
add to favorites
launch autoscroll
font size
0
reset
guitar tuner
×
Best way to learn
"Triple Trouble"
Autoscroll
slow
fast
+/-
esc
set tempo
stop
Author
Triple Trouble
Beastie Boys
To The 5 Boroughs

This is played on a fretless, but it doesn't really matter.

G|------------------------|
D|------------------------|
A|------------------------|
E|-10-12---------12p10\0--|

If you get bored playing that a million times,
play this:
G|------------------------|
D|------------------------|
A|-5-7--------------------|
E|---------------12\5p0---|

That's all, what do you expect? It's rap.
Suggest correction
comments
print report bad tab
1 comment total.
-1 reply
vomitingself 105 Apr 06, 2013 11:17 PM

G|------------------------|
D|------------------------|
A|-5-7------7-5-----------|
E|--------------7-0-------|

guest
You may want to rate the tab now too:
select rating
Wanna post a correction for this tab? Suggest correction