Oops, an error
Loading. Please wait.

Watch Out Bass Tab

235 views 1 this week
no commentswrite comment
1 2 3 4 5
please rate
add to favorites
launch autoscroll
font size
0
reset
guitar tuner
Autoscroll
slow
fast
+/-
esc
set tempo
stop
Help us to improve Ultimate-Guitar.com Take our survey!
×
Author
Difficulty
novice
G [----------------------------------------------------5---4---3---2---0--]
D [------5----4----3---0---2----------------------------------------------]
A [-------------------------------2---0---3---4---5-----------------------]
C [--------------------------------------------------------------------------]


G [--------------------11--12--13--10-10-----------------------------------]
D [----------------------------------------5--4---3--0--2---6--6--7--6-----]
A [-----------12---12------------------------------------------------------]
C [----10-10---------------------------------------------------------------]
Suggest correction
Give kudos to tab author, rate the tab!
1 2 3 4 5
comments
print report bad tab
guest
You may want to rate the tab now too:
select rating
Wanna post a correction for this tab? Suggest correction