Oops, an error
Loading. Please wait.

Follow Me tab

version 1
version 1

Whole song

Interactive

6,531 views 3 this week
no commentswrite comment
1 2 3 4 5
3 more votes to show rating
add to favorites
×
Save as Personal and add changes to this tab that will be seen only by you. Learn more ›
×
You can save this tab as Personal to edit and correct it or add notes. All changes will be seen only by you. Learn more »
launch autoscroll
font size
0
reset
how to read this tab
guitar tuner
edit
Autoscroll
slow
fast
+/-
esc
set tempo
stop
Difficulty
intro:
G Em Bm C Bm Em Em F# Am D D 
G G 

on the Em part of intro...
e|----7---------9-----10-----9--------------------------------------|
B|----8---------10--------------------------------------------------|
G|----7---------9---------------------------------------------------|
D|----9----2x---11--------------------------------------------------|
A|----7---------9---------------------------------------------------|
E|----7---------9---------------------------------------------------|

on the G part of intro...

---------3----8---7----5---------------|
---------3-----------------------------|
---------0-----------------------------|
-----0---------------------------------| 2x
-----2---------------------------------|
-----3---------------------------------|

---------3-------3------3----3-----3----3---|
---------3-------3------3----3-----3----3---|
---------0-------0------0----0-----0----0---|
-----0------0-------------------------------|
-----2------2--------0-----0-----0---0------|
-----3------3--------2-----2-----0---0------|

i was staring at your shoulders shivering...

|------0-----------------0-----0-----3----3----3-----------------|
|------1--1h3--3p1-------1-----1-----3----3----3-----------------|
|------0-------------2------2--------0----0----0-----------------|
|---2----------------2------2------------------------------------|
|---3----------------0------0------------------------------------|
|----------------------------------3---2----0--------------------|

why were here....
reading on the lines between...

Am                         D
Ill be twisting my self again...

on D part...

|-----3--5-6---5--5----------------------------------------------|
|-----3--3-3-----------------------------------------------------|
|-----5--5-5---7--7----------------------------------------------|
|-----5--5-5---7--7----------------------------------------------|
|-----3--3-3---5--5----------------------------------------------|
|----------------------------------------------------------------|

repeat intro...

Suggest correction
Creating personal tab
Creating personal tab
You can edit any tab online and save it as your Personal.

You can edit, replace or remove any tab part or add personal notes – all changes will be seen only by you.

Personal tabs can be accessed anytime from any device, even offline.
Learn more »
Give kudos to tab author, rate the tab!
1 2 3 4 5
comments
print report bad tab
guest
Wanna post a correction for this tab? Suggest correction