Oops, an error
Loading. Please wait.

Moon On The Water Tab

version 1
version 1

Whole song

Interactive

49,636 views 12 this week
2 commentsread comments
1 2 3 4 5
excellent!
x 5
add to favorites
launch autoscroll
font size
0
reset
how to read this tab
guitar tuner
Tab Pro tools
  • play this tab
  • loop segment
  • change instrument
  • show fretboard
  • metronome
×
Best way to learn
"Moon On The Water"
Autoscroll
slow
fast
+/-
esc
set tempo
stop
Difficulty
novice
Song: Moon on the Water
Artist: Beat Crusaders

Legend:
h  - hammer       s  - slide
hb - half bend    () - vibrate
fb - full bend    p  - pull

Chords:
                       E    A5
  E   A5   B5   C#m   version 2
|-0-|-0--|-0--|-0----|-0--|-----|
|-0-|-0--|-0--|-5----|-0--|-10--|
|-1-|-2--|-4--|-6----|-9--|-9---|
|-2-|-2--|-4--|-6----|-9--|-7---|
|-2-|-0--|-2--|-4----|-7--|-0---|
|---|----|----|------|----|-----|

Chorus1:
Guitar1:
|-0--------------------------------------------------|
|-0---------10-10------4-(4)-4h5p4hb--2-(2)-5s4------|
|-9--9------9----98hb--6-(6)----------4-(4)----4hb---|
|-9---98hb--7-7--------6-(6)----------4-(4)----------|
|-7-7-------0----------4-(4)----------2-(2)----------|
|----------------------------------------------------|
|                                                    | 2xs
|---------0-----------------0------------------------|
|-----0-----0---0-------0----------------------------|
|-------2-----------------2--------------------------|
|---2------------------------------------------------|
|-0-----------0-------0------------------------------|
|----------------------------------------------------|

Interlude:

Guitar1:
|-0------------------------------------------7-------|
|-0---------10-10------4-(4)-4h5p4hb--2-(2)--0-------|
|-9--9------9----98hb--6-(6)----------4-(4)----------|
|-9---98hb--7-7--------6-(6)----------4-(4)----------|
|-7-7-------0----------4-(4)----------2-(2)----------|
|----------------------------------------------------|
|                                                    |
|---------0-----------------0------------------------|
|-----0-----0---0-------0----------------------------|
|-------2-----------------2--------------------------|
|---2------------------------------------------------|
|-0-----------0-------0------------------------------|
|----------------------------------------------------|


Guitar2: Do the Chord Pattern (In Original Chord)

E - A5 - C#m - B5 - A5


Verse 1:
Guitar1:
|-0------------------------------------------7-------------|
|-0---------10-10------4-(4)-4h5p4hb--2-(2)--0-------------|
|-9--9------9----98hb--6-(6)----------4-(4)----------------|
|-9---98hb--7-7--------6-(6)----------4-(4)----------------|
|-7-7-------0----------4-(4)----------2-(2)----------------|
|----------------------------------------------------------|
                             <------- Fill in -------> 2xs-|
|---------0-----------------7-7h9-7h9-7h9-7h9-7h9----------|
|-----0-----0---0-------0---0------------------------------|
|-------2-----------------2----------------------9hb-------|
|---2------------------------------------------------------|
|-0-----------0-------0------------------------------------|
|----------------------------------------------------------|

Guitar2: Do the Chord Pattern
 E - A5 - C#m - B5 - A5 (Picking the Last Chord, A5)

Chorus2:
Both Guitars:
Chord Pattern C#m - A5 - E - B5 - C#m - A5 (2xs)
                                <---    Fill in   -----|
|-------------------------------9-(9)-7(7)-------------|
|------------------------------------------9-(9) ------|
|------------------------------------------------------|
|------------------------------------------------------|
|------------------------------------------------------|
|------------------------------------------------------|

Verse 2:
Guitar1:
|-0--------------------------------------------------|
|-0---------10-10------4-(4)-4h5p4hb--2-(2)-5s4------|
|-9--9------9----98hb--6-(6)----------4-(4)----4hb---|
|-9---98hb--7-7--------6-(6)----------4-(4)----------|
|-7-7-------0----------4-(4)----------2-(2)----------|
|----------------------------------------------------|
|                                                    | 2xs
|---------0-----------------0--|
|-----0-----0---0-------0------|
|-------2-----------------2----|
|---2--------------------------|
|-0-----------0-------0--------|
|------------------------------|
Guitar2------------------------| Chord Pattern:E - A5 - C#m - B5 - A5

Fill In 1:
Guitar1:
|------------------------------5s9-99-7h9-7----------|
|------------------------------------------9p7-(7)---|
|-------------------------------------------------9hb|
|----------------------------------------------------|
|----------------------------------------------------|
|----------------------------------------------------|

Chorus3:
Both Guitars do Chord Pattern
C#m - A5 - E - B5 - C#m - A5 (2xs)

Fill In 2:
Guitar1:

Couldn’t Let Myself to Go…
|-----------5s7fb-5----------------------------------|
|------------------75hb-3---5h7-5h7-5h7-5h7-5h7------|
|----------------------------------------------------|
|----------------------------------------------------|
|----------------------------------------------------|
|----------------------------------------------------|
|                                                    |
|----------------------------------------------------|
|-5s9hb---(9)---7h9p7--------------------------------|
|---------------------9hb-----(9)--------------------|
|----------------------------------------------------|
|----------------------------------------------------|
|----------------------------------------------------|

Interude2:
Guitar 1 :
|-0--------------------------------------------------|
|-0---------10-10------4-(4)-4h5p4hb--2-(2)-5s4------|
|-9--9------9----98hb--6-(6)----------4-(4)----4hb---|
|-9---98hb--7-7--------6-(6)----------4-(4)----------|
|-7-7-------0----------4-(4)----------2-(2)----------|
|----------------------------------------------------|
|                                                    |
|---------0-----------------0------------------------|
|-----0-----0---0-------0----------------------------|
|-------2-----------------2--------------------------|
|---2------------------------------------------------|
|-0-----------0-------0------------------------------|
|----------------------------------------------------|

|-0----------------------------7-(7)--------7-(7)----|
|-0---------10-10------4s5-(5)------4s5-(5)----------|
|-9--9------9----98hb--------------------------------|
|-9---98hb--7-7--------------------------------------|
|-7-7-------0----------------------------------------|
|----------------------------------------------------|
|                                                    |
|---------5-(5)----------------7---------------------|
|-4s5-(5)----------------------0---------------------|
|----------------------------------------------------|
|----------------------------------------------------|
|----------------------------------------------------|
|----------------------------------------------------|

Guitar2:
|-0--------------------------------------------------|
|-0---------10-10------4-(4)-4h5p4hb--2-(2)-5s4------|
|-9--9------9----98hb--6-(6)----------4-(4)----4hb---|
|-9---98hb--7-7--------6-(6)----------4-(4)----------|
|-7-7-------0----------4-(4)----------2-(2)----------|
|----------------------------------------------------|
|                                                    | 2xs
|---------0-------------------0----------------------|
|-----0-----0---0---------0--------------------------|
|-------2-------------------2------------------------|
|---2-------------------2----------------------------|
|-0-----------0-------0------------------------------|
|----------------------------------------------------|

Chorus4:
Guitar1:
|-99999999-1212121212121212-99-77-99999999--10101010-|
|----------------------------------------------------|
|----------------------------------------------------|
|----------------------------------------------------|
|----------------------------------------------------|
|----------------------------------------------------|
|                                                    | 2xs
|-121212121212---------------------------------------|
|----------------------------------------------------|
|----------------------------------------------------|
|----------------------------------------------------|
|----------------------------------------------------|
|----------------------------------------------------|

Guitar2: Chord Pattern
C#m - A5 - E - B5 - C#m - A5 (2xs)

Last Chorus:
Guitar1:
|-0----------------------------7-(7)--------7-(7)----|
|-0---------10-10------4s5-(5)------4s5-(5)----------|
|-9--9------9----98hb--------------------------------|
|-9---98hb--7-7--------------------------------------|
|-7-7-------0----------------------------------------|
|----------------------------------------------------|
|                                                    |
|---------5-(5)----------------7---------------------|
|-4s5-(5)----------------------0---------------------|
|----------------------------------------------------|
|----------------------------------------------------|
|----------------------------------------------------|
|----------------------------------------------------|

|-0------------------------------------------7-------|
|-0---------10-10------4-(4)-4h5p4hb--2-(2)--0-------|
|-9--9------9----98hb--6-(6)----------4-(4)----------|
|-9---98hb--7-7--------6-(6)----------4-(4)----------|
|-7-7-------0----------4-(4)----------2-(2)----------|
|----------------------------------------------------|
|                                                    |
|---------0-------------------0----0------(0)--------|
|-----0-----0---0---------0--------0------(0)--------|
|-------2-------------------2------2------(2)--------|
|---2-------------------2----------2------(2)--------|
|-0-----------0-------0------------0------(0)--------|
|----------------------------------------------------|

Guitar2:
|-0--------------------------------------------------|
|-0---------10-10------4-(4)-4h5p4hb--2-(2)-5s4------|
|-9--9------9----98hb--6-(6)----------4-(4)----4hb---|
|-9---98hb--7-7--------6-(6)----------4-(4)----------|
|-7-7-------0----------4-(4)----------2-(2)----------|
|----------------------------------------------------|
|                                                    | 2xs
|---------0-------------------0----0------(0)--------|
|-----0-----0---0---------0--------0------(0)--------|
|-------2-------------------2------2------(2)--------|
|---2-------------------2----------2------(2)--------|
|-0-----------0-------0------------0------(0)--------|
|----------------------------------------------------|


End




Performed in the Anime Series
“Beck: Mongolian Chop Squad”
comments
print report bad tab
2 comments total.
0 reply
!DarkGuitarist! wrote on June 9 2009, 02:03 pm

in the intro and verse
--0----
--10---
--9----
--7----
--0----
-------
is better as
--0----
--0----
--9----
--7----
--0----
-------
and the picking after is right

0 reply
shadow assasin wrote on July 30 2009, 07:21 pm

|---------0-----------------0------------------------|

I want to post or [tab]
guest
You may want to rate the tab now too:
select rating
Please do not post tabs as comments. Select "correction" instead!