Oops, an error
Loading. Please wait.

Tonight Tonight Tonight bass

version 1
version 1

Whole song

Interactive

5,291 views 3 this week
1 commentread comment
1 2 3 4 5
2 more votes to show rating
add to favorites
×
Save as Personal and add changes to this tab that will be seen only by you. Learn more ›
×
You can save this tab as Personal to edit and correct it or add notes. All changes will be seen only by you. Learn more »
launch autoscroll
font size
0
reset
guitar tuner
edit
Autoscroll
slow
fast
+/-
esc
set tempo
stop
Author
Difficulty
Beat Crusaders
Tonight, Tonight, Tonight
Bass
Tabbed by Jam Zumel

Intro
Guitar opens
0:00-0:05

0:06-0:14
g|---------------------|
d|---------------------|
a|-3(x8)—2(x8)—0(x16)--|
e|---------------------| Repeat twice

Verse 1
0:16-0:35
g|-------------------------------------------|
d|-------------------------------------------|
a|-3(x16)----------0(x8)---------------------|
e|---------1(x16)-------- 0(x8)- 1(x8)-3(x8)-| Repeat twice

then at 0:36-0:39
g|---------------------|
d|---------------------|
a|---------------------|
e|--6(x5)--------------|

Chorus
0:40-0:50
g|---------------------------------------------|
d|---------------------------------------------|
a|-3(x8)-----3(x8)------ 0(x8)-----------------|
e|------1(x8)-----1(x8)---- 0(x8)- 1(x8)-3(x8)-| 

Break
0:50-0:58
g|---------------------|
d|---------------------|
a|-3(x8)—2(x8)—0(x16)--|
e|---------------------| Repeat twice

Verse 2
1:01-1:22
g|-------------------------------------------|
d|-------------------------------------------|
a|-3(x16)----------0(x8)---------------------|
e|---------1(x16)-------- 0(x8)- 1(x8)-3(x8)-| Repeat twice
 
Chrous
1:23-1:33
g|---------------------------------------------|
d|---------------------------------------------|
a|-3(x8)-----3(x8)------ 0(x8)-----------------|
e|------1(x8)-----1(x8)---- 0(x8)- 1(x8)-3(x8)-| 


1:33-1:40 guitar riff
g|---------------------|
d|---------------------|
a|---------------------|
e|---------------------|
 
Bridge
1:40-1:57
g|---------------------|
d|---------------------|
a|-0-------------------| Let the notes ring
e|----3--1--1----------| (repeat twice)

1:58-2:02 guitar riff
g|---------------------|
d|---------------------|
a|---------------------|
e|---------------------|
 
Outro
2:03-2:23
g|---------------------------------------------|
d|---------------------------------------------|
a|-3(x8)-----3(x8)------ 0(x8)-----------------|
e|------1(x8)-----1(x8)---- 0(x8)- 1(x8)-3(x8)-| repeat twice

2:24-2:38
g|---------------------|
d|---------------------|
a|---------------------|
e|---------------------|

            
            
Suggest correction
Creating personal tab
Creating personal tab
You can edit any tab online and save it as your Personal.

You can edit, replace or remove any tab part or add personal notes – all changes will be seen only by you.

Personal tabs can be accessed anytime from any device, even offline.
Learn more »
Give kudos to tab author, rate the tab!
1 2 3 4 5
comments
print report bad tab
1 comment total.
0 reply
miletone17 10 Jul 27, 2007 04:09 AM

some one plss tab the guitar version!!!!

guest
You may want to rate the tab now too:
select rating
Wanna post a correction for this tab? Suggest correction