Oops, an error
Loading. Please wait.

Bad Seeds tab

version 2
version 2

Whole song

879 views 1 this week
1 commentread comment
1 2 3 4 5
2 more votes to show rating
add to favorites
×
Save as Personal and add changes to this tab that will be seen only by you. Learn more ›
×
You can save this tab as Personal to edit and correct it or add notes. All changes will be seen only by you. Learn more »
launch autoscroll
font size
0
reset
how to read this tab
guitar tuner
edit
Autoscroll
slow
fast
+/-
esc
set tempo
stop
Author
Difficulty
Main Riff-

E|--------------------------------------------------|
B|--------------------------------------------------|
G|--------------------------------------------------|
D|--------------------------------------------------|
A|--------------------------------------------------|
E|--0--3--5--5--5--5--6--6--6--5--5--3--0--3--5--0--|


Chorus:
I'm not exactly sure
E chord
A chord
and then this
E|--------------|
B|--------------|
G|--7--9--7--9--|
D|--7--9--7--9--|
A|--5--5--5--5--|
E|--------------|

Pretty sure the chorus is wrong but the main riff is right.

            
            
Suggest correction
Creating personal tab
Creating personal tab
You can edit any tab online and save it as your Personal.

You can edit, replace or remove any tab part or add personal notes – all changes will be seen only by you.

Personal tabs can be accessed anytime from any device, even offline.
Learn more »
Give kudos to tab author, rate the tab!
1 2 3 4 5
comments
print report bad tab
1 comment total.
0 reply
jluker 32 Oct 25, 2015 05:22 AM

Here is my version of the chorus. Might still be wrong but it feels naughty. Take a look.

Simplified strumming here:

E E G G A A Abend A
E|--------3--3--------x-------------|
B|--------------2--2--2b-br--2------|
G|--1--1--------2--2--2b-br--2------|
D|--2--2--------2--2--2b-br--2------|
A|--2--2--2--2--------x-------------|
E|--------3--3--------x-------------|

Not sure if I've used correct notation for the chord bend… here it is in english.
Play the first A normally, all strings.
While the open strings continue to ring out, play A (just the three strings with fingers on) and bend all three fingers up a little, then ease them back down (in that sultry sexy way Beat Happening do it).

This makes sense with the main riff when you think about it, it follows more or less the same notes:
E - G - A - bend toward B flat and back down to A
or tabbed on the low E string:
0 - 3 - 5 - bend to 6 - 5

Have a go, see what you think!

guest
You may want to rate the tab now too:
select rating
Wanna post a correction for this tab? Suggest correction