Oops, an error
Loading. Please wait.

Beauty Like A Tightened Bow tab

343 views 21 this week
no commentswrite comment
1 2 3 4 5
2 more votes to show rating
add to favorites
×
Save as Personal and add changes to this tab that will be seen only by you. Learn more ›
×
You can save this tab as Personal to edit and correct it or add notes. All changes will be seen only by you. Learn more »
launch autoscroll
font size
0
reset
how to read this tab
guitar tuner
edit
Autoscroll
slow
fast
+/-
esc
set tempo
stop
Author
Difficulty
Beatenberg - Beauty Like A Tightened Bow - Guitar tab

This is my second tab ive ever made, hope you like it.
I figured this out myself so it mightened be exactly whats being played in the song, but i think it sounds
almost 100% accurate.

Intro riff (I cant figure out if this has a particular rhythm to it, but here are the notes):

E |11-15-10-------8----------------|
B |---------11------10-8-----------|
G |------------10-------------10---|
D |---------------------12-10----12|
A |--------------------------------|
E |--------------------------------|

Chorus riff/chords thing (The dashes represent 16th notes):

E |--10--8---6-----------------------|
B |--11--8---6--6--8--6--------------|
G |--10--10--7--7--8--7--3/5-5-------|
D |-------------8--8--8--5/7-7-------|
A |----------------------6/8-8-------|
E |----------------------------------|

E |--10--8---6------------------------|
B |--11--8---6--6--8--6---------------|
G |--10--10--7--7--8--7--3--7--7------|
D |-------------8--8--8--5--7--7--10-9|
A |----------------------6--8--8--8--8|
E |-----------------------------------|

Vers melody (The dashes represent 16th notes):

E |--------------------------------------|
B |--------------------------------------|
G |--10-----------8------10--7-----8-----|
D |-------10-8---8----------8----7-------|
A |8----11-----6----10-8-------8----10-8-|
E |--------------------------------------|

E |--------------------------------------|
B |--------------------------------------|
G |---10----------88-----10--7-----------|
D |-------10----------------8----7--10-8-|
A |-----11---10-6------8-------8---8-----|
E |10----------------6-------------------|

The second part was particularly hard to identify. The two D#s (8 on G) in a row feels wrong and you think 
the first D# should be an A# (8 on D), but to me it sounds more like two D#s are being played in 
the song.

Bridge Chords:

|--D#---A#-|--F---(Fsus4)F|

|--D#---A#-|--Cm7---Cm7sus4-|

Do the Cm7sus4 by placing you 4th finger on the 6th fret of the B string while playing a Cm7.

******************************************

/ = Slide up

******************************************

Thats it!

            
            
Suggest correction
Creating personal tab
Creating personal tab
You can edit any tab online and save it as your Personal.

You can edit, replace or remove any tab part or add personal notes – all changes will be seen only by you.

Personal tabs can be accessed anytime from any device, even offline.
Learn more »
Give kudos to tab author, rate the tab!
1 2 3 4 5
comments
print report bad tab
guest
You may want to rate the tab now too:
select rating
Wanna post a correction for this tab? Suggest correction