Oops, an error
Loading. Please wait.

Cut Off The Top tab

version 1
version 1

Whole song

Interactive

16,467 views 3 this week
4 commentsread comments
1 2 3 4 5
x 9
add to favorites
×
Save as Personal and add changes to this tab that will be seen only by you. Learn more ›
×
You can save this tab as Personal to edit and correct it or add notes. All changes will be seen only by you. Learn more »
launch autoscroll
font size
0
reset
how to read this tab
guitar tuner
edit
Autoscroll
slow
fast
+/-
esc
set tempo
stop
Author
-----------------------------------------------------------------------
                     Cut off the Top tab by Felle
-----------------------------------------------------------------------

Artist:Beatsteaks
Song  :Cut off the Top
Album :.Limbo Messiah
Tuning:EADGBE

Hello again,
After my 1st Beatsteaks-Tab(E-G-O) now comes the 2nd one.
It's the Tab for the Song "Cut off the Top".....
If u wanna play this song u must be able to play reggae...u know what i mean

Intro:

E-0-------------------------------------|
B-0-------------------------------------|
G-0-------------------------------------| x2,then....
D----3--3-3--3-3--3-3--3-3--3-3---------|
A----3--3-3--3-3--3-3--3-3--3-3---------|
E----1--1-1--1-1--1-1--1-1--1-1---------|


Verse+Chorus:

E-5--5--5--5---4--4--4--4---2--2--2--2---5--5---4--4------------|
B-7--7--7--7---5--5--5--5---3--3--3--3---7--7---5--5------------|
G-6--6--6--6---6--6--6--6---4--4--4--4---6--6---6--6------------|
D---------------------------------------------------------------| x2
A---------------------------------------------------------------|
E---------------------------------------------------------------|

Bridge1:

E--------------4--4--4--4---2--2--2--2----------4--4------------|
B-7--7--7--7---5--5--5--5---3--3--3--3---7--7---5--5------------|
G-6--6--6--6---6--6--6--6---4--4--4--4---6--6---6--6------------|
D-7--7--7--7---6--6--6--6---4--4--4--4---7--7---6--6------------|
A-5--5--5--5---4--4--4--4---2--2--2--2---5--5---4--4------------|
E---------------------------------------------------------------|

after that Verse x3,then comes the..

Bridge2:

E-9--9--9--9--9--9--9--9----4--4--4--4---2--2--2--2-------------|
B-10-10-10-10-10-10-10-10---5--5--5--5---3--3--3--3-------------|
G-9--9--9--9--9--9--9--9----4--4--4--4---2--2--2--2-------------| x4
D---------------------------------------------------------------|
A---------------------------------------------------------------|
E---------------------------------------------------------------|

then Verse x3

You canb figure out the outro by yourself.....

Cheers
(Please Vote)

            
            
Suggest correction
Creating personal tab
Creating personal tab
You can edit any tab online and save it as your Personal.

You can edit, replace or remove any tab part or add personal notes – all changes will be seen only by you.

Personal tabs can be accessed anytime from any device, even offline.
Learn more »
comments
print report bad tab
4 comments total. Showing first comments.
0 reply
Beat-Me 70 Sep 07, 2007 03:05 AM

this tab is perfect, dude! sounds excactly like the song!! =)

0 reply
necriononguitar 3,062 Oct 26, 2008 03:48 AM

No it doesnt...bridge one bridge two?
So the bridge " i seee at least you..." is:
E----------------------------------------------------------
B---10--------9----------10---------10-------9----------------
G---11--x16---9---x16----11--x16----10--x8---9--x8----------------
D---11--------11---------12---------11-------9----------------
A----------------------------------------------------------
E----------------------------------------------------------

try it! it sounds very good
viel spaß!

0 reply
necriononguitar 3,062 Oct 26, 2008 03:54 AM

oder man kann es so spielen: (klingt eig besser, man kann das E und das D auch auf andere weise spielen, aber die Akkorde sind gut)
E--------------------------------------14----------------------------
B--10--------9--------7----------------15--x16---10-------9----------
G--11--x16---9--x16---7--x16--(oder)---14--------11--x8---9--x16-----
D--11--------9--------7--------------------------11-------9----------
A--------------------------------------------------------------------
E--------------------------------------------------------------------
Das erste ist glaub ich nicht richtig, klint aber auch gut
hf

guest
You may want to rate the tab now too:
select rating
Wanna post a correction for this tab? Suggest correction