Oops, an error
Loading. Please wait.

Let Me In bass

version 1
version 1

Whole song

Interactive

6,916 views 1 this week
no commentswrite comment
1 2 3 4 5
2 more votes to show rating
add to favorites
×
Save as Personal and add changes to this tab that will be seen only by you. Learn more ›
×
You can save this tab as Personal to edit and correct it or add notes. All changes will be seen only by you. Learn more »
launch autoscroll
font size
0
reset
guitar tuner
edit
Autoscroll
slow
fast
+/-
esc
set tempo
stop
This is one of the great songs by beatsteaks...
its not that easy cuz of the fast verse, but however, figure it out somehow...
RATE THIS PLZ!!!

Intro
G | ------------------------------------|
D | ------------------------------------|
A | ------------------------------------|
D | --1-------1-------1-------1---------|

Verse
G | ----------------------------------------|
D | ----------------------------------------|
A | --333--------------------------|    x11-|
D | ------555-444-111-3-4-------------------|

G | ---------------------------------------------|
D | ---------------------------------------------|
A | --33-----------------------3 (hold)----------|
D | -----5555-444-1-33-44------------------------|

Refrain
G | ------------------------------------------------|
D | ------------------------------------------------|
A | -666-------------------666----------------------|
D | -----6-66666666666----------5-55555555555-------|

G | ---------------------------------------------------------------------|
D | ---------------------------------------------------------------------|
A | --666-3-33333333333-333-3-33333333-3333--666-------------------------|
D | ------------------------------------------------6-66666666666--------|

G | ----------------------------------|
D | ----------------------------------|
A | --666----------------------666----|
D | -------5-555-5555-5555------------|

Verse
G | -----------------------------------|
D | -----------------------------------|
A | --333------------------------------|   x9
D | ------555-444-111-3-4--------------|

G | ---------------------------------------------|
D | ---------------------------------------------|
A | --33-----------------------3 (hold)----------|
D | -----5555-444-1-33-44------------------------|

Refrain
G | -----------------------------------------------|
D | -----------------------------------------------|
A | -666----------------------666------------------|
D | ------6-66666666666----------5-55555555555-----|

G | --------------------------------------------------------------------|
D | --------------------------------------------------------------------|
A | --666-3-33333333333-333-3-3333-3333-3333--666-----------------------|
D | ------------------------------------------------6-66666666666-------|

G | ----------------------------------------------------------------------------|
D | ----------------------------------------------------------------------------|
A | --666----------------------666-3-33333333333-33-3/6-66666666666-------------|
D | -------5-55555555555--------------------------------------------------------|

G | ---------------------------------------------------------|
D | ---------------------------------------------------------|
A | -666-------------------666----------------------666------|
D | -----6-66666666666------------5-55555555555--------------|

Bridge
G | --------------------------------|
D | --------------------------------|
A | --333---------------------------|    x8
D | ------555-444-111-3-4-----------|

A | --333---------------------333---------------------------------------|
D | ------555-444-111-3-4---------555-444-111-3-4---0---------0---------|

(at 2:26)
G | -------------------------------|
D | -------------------------------|
A | --333--------------------------|   x2
D | ------555-444-111-3-4----------|

G | --------------------------------------------------------------------------|
D | --------------------------------------------------------------------------|
A | --333-------------------------3333-3333-3333-3333-33/66-666666666666------|
D | ------555-444-111-33-44---------------------------------------------------|

Refrain
G | -----------------------------------------------|
D | -----------------------------------------------|
A | ---------------------666-----------------------|
D | ----6-66666666666----------5-55555555555-------|


G | --------------------------------------------------------------------|
D | --------------------------------------------------------------------|
A | --666-3-33333333333-333-3-3333-3333-3333--666-----------------------|
D | ------------------------------------------------6-666-6666-6666-----|

G | ---------------------------------------------------------------------|
D | ---------------------------------------------------------------------|
A | --666----------------------666-3-33333333333-33-3/6-6-6-6-666--------|
D | --------5-55555555555------------------------------------------------|

G | -----------------------------------------|
D | -----------------------------------------|
A | ------------------666--------------------|
D | --6-66666666666-------5-55555555555------|

G | --------------------------------------------------|
D | --------------------------------------------------|
A | --666-3-33333333333-333-6-6666666-66666666--------|
D | --------------------------------------------------|

G | -----------------------------------------------------|
D | -----------------------------------------------------|
A | -----------------------666-------------------666-----|
D | ----6-666-6666-6666--------5-555-5555-5555-----------|

Outro
G | -----------------------------|
D | -----------------------------|
A | --3---3---3---3---333--------|   x3
D | -----------------------------|


G | --------------------------|
D | --------------------------|
A | --3---3---3---------------|
D | --------------------------|

thats it...
im quite sure this is right cuz ive seen them live and thorstens hand movement looks really similar
have fun with the best beatsteaks song ever written xD
Suggest correction
Creating personal tab
Creating personal tab
You can edit any tab online and save it as your Personal.

You can edit, replace or remove any tab part or add personal notes – all changes will be seen only by you.

Personal tabs can be accessed anytime from any device, even offline.
Learn more »
Give kudos to tab author, rate the tab!
1 2 3 4 5
comments
print report bad tab
guest
Wanna post a correction for this tab? Suggest correction