Oops, an error
Loading. Please wait.

She Was Great bass

version 1
version 1

Whole song

Interactive

1,834 views 1 this week
1 commentread comment
1 2 3 4 5
1 last vote to show rating
add to favorites
×
Save as Personal and add changes to this tab that will be seen only by you. Learn more ›
×
You can save this tab as Personal to edit and correct it or add notes. All changes will be seen only by you. Learn more »
launch autoscroll
font size
0
reset
guitar tuner
edit
Autoscroll
slow
fast
+/-
esc
set tempo
stop
Difficulty
leider find ich den aller ersten song nicht raus, dewegen hier das lied ohne ersten ton^^:

Intro:

G|------------------------------------------------------------|    
D|---------11--13--11--13------11--13--11--13-----------------|
A|--9?--11---------------9?-11--------------------------------|
E|------------------------------------------------------------|


G|------------------------------------------------------------|
D|------11-----8----6---11-----6--------11---8---6--11---6----|
A|---11-----9----6----------9-----6--11----9---6-------9----6-|
E|------------------------------------------------------------|

und so geht das dann durchs ganze lied. ausser das imrefrain folgendes gespielt wird;

G|-----------------------------|
D|------11-----8----6---11-----|
A|---11-----9----6----------9--|
E|-----------------------------|

die bridge hab ich noch nicht fertig, aber vielleicht könnt ihr mir ja damit helfen.

bei verbeserungsvorschlägen oder kritik bitte an dav.wa@web.de schreiben!


sonst viel spaß

dave


Suggest correction
Creating personal tab
Creating personal tab
You can edit any tab online and save it as your Personal.

You can edit, replace or remove any tab part or add personal notes – all changes will be seen only by you.

Personal tabs can be accessed anytime from any device, even offline.
Learn more »
Give kudos to tab author, rate the tab!
1 2 3 4 5
comments
print report bad tab
1 comment total.
0 reply
Dreat 45 Sep 26, 2013 09:52 AM

ich spiel zwar noch nicht lange bass
aber ich find das hört sich ganz gut an

guest
Wanna post a correction for this tab? Suggest correction