Oops, an error
Loading. Please wait.

Shut Up Stand Up Tab

version 1
version 1

Intro

Whole song

Interactive

612 views 1 this week
1 commentread comment
1 2 3 4 5
1 last vote to show rating
add to favorites
launch autoscroll
font size
0
reset
how to read this tab
guitar tuner
×
Best way to learn
"Shut Up Stand Up"
Autoscroll
slow
fast
+/-
esc
set tempo
stop
This is only the intro and verse.
I'm working at the other parts.

Ich gehe davon aus, dass Beatsteaksfans eh Deutsch
können.

Also
INTRO:
davor Bass dann:
[----------------------------------------------------]
[----------------------------------------------------]
[--------x-5-5-------x-5-5-------x-5-5-------x-5-5---]
[---5-5--x-5-5--5-5--x-5-5--2-2--x-3-3--2-2--x-5-5---]
[---5-5--x-3-3--5-5--x-3-3--2-2--x-3-3--2-2--x-3-3---]
[---3-3--x------3-3--x------0-0--x------0-0--x-------]
Bisschen rein das Original anhöhren dann habt ihrs auch schneller.

Bei der Strophe einfach die x weg lassen. 

Refrain hab ich hoffentlich auch bald.
Die Solie werden hart
mfg
Suggest correction
Give kudos to tab author, rate the tab!
1 2 3 4 5
comments
print report bad tab
1 comment total.
0 reply
Richey 16 Feb 07, 2006 01:12 AM

wenn mich nich alles täuscht kommt das ende auch ma so vor:

[------------------------------------------------------]
[------------------------------------------------------]
[--------x-5-5-------x-5-5-------x-5-5-------x---------]
[---5-5--x-5-5--5-5--x-5-5--2-2--x-3-3--2-2--x-24455-5-]
[---5-5--x-3-3--5-5--x-3-3--2-2--x-3-3--2-2--x-24455-5-]
[---3-3--x------3-3--x------0-0--x------0-0--x-02433-3-]

könnte ne variation vom rhytmus sein.. kein plan, hab meine cd grad verliehn..

guest
You may want to rate the tab now too:
select rating
Wanna post a correction for this tab? Suggest correction