Oops, an error
Loading. Please wait.

Siempre Me Quedara Tab

by Bebe
2,414 views 15 this week
no commentswrite comment
1 2 3 4 5
please rate
add to favorites
launch autoscroll
font size
0
reset
how to read this tab
guitar tuner
Tab Pro tools
  • play this tab
  • loop segment
  • change instrument
  • show fretboard
  • metronome
Autoscroll
slow
fast
+/-
esc
set tempo
stop
Contributor
Hi everyone! So, I recently started listening to Bebe (seriously, how did I find her so
late!?!?!) and I really wanted to try playing her songs, and as it turns out, not many
of her tabs are up here, so I did a little googling, and I found them; and just so 
people up here on UG can access the tabs, I'm putting them up, so please acknowledge I DID NOT
CREATE THESE TABS. Some else did and I'll include the original link at the bottom. Also, 
there's a message from the person who wrote it so if your up for Google Translating 
stuff go for it.

Hola como están esta es mi primera colaboración en la cuerda.net
así que espero les guste, este primer tema es del grupo de hip hop
cubano “los Aldeanos” junto con la cantante española Bebe,
es una versión de rap de la canción SIEMPRE ME QUEDARA de Bebe,
llamada en otras partes como SIN TU SONRISA, es una canción muy
bonita y romántica espero sea de su agrado. Saludos desde Venezuela
 =)

(BEBE)
           Am                                G
e|-----------------0-----------0-|------------------3----------3-|
B|--------------1-----------1----|---------------0----------0----|
G|-----------2----------2--------|------------0----------0-------|
D|--------2----------2-----------|---------0----------0----------|
A|-------------------------------|-------------------------------|
E|-------------------------------|-------------------------------|
  Como decir que me partes en mil, las esquinitas de mi huesos

                  Am                                G
e|-----------------0-----------------0-|-----------------3----------3-|
B|--------------1-----------------1----|--------------0----------0----|
G|-----------2----------------2--------|-----------0----------0-------|
D|--------2----------------2-----------|--------0----------0----------|
A|-------------------------------------|------------------------------|
E|-------------------------------------|------------------------------|
  que han caído los esquemas de mi vida, ahora que todo era perfecto

                   Dm                                  Am
e|---------------1-----------------1---|-----------------0----0--------0|
B|------------3-----------------3------|-------------1--------1------1--|
G|---------2----------------2----------|---------2------------2----2----|
D|------0----------------0-------------|-----2----------------2--2------|
A|-------------------------------------|--------------------------------|
E|-------------------------------------|--------------------------------|
y algo mas que eso me sorbiste el seso y me desciende el peso

                   F                                E
e|-----------------1--------------1|-----------0---------------0--|
B|--------------1--------------1---|--------0---------------0-----|
G|-----------2-------------2-------|-----1---------------1--------|
D|--------3-------------3----------|-2---------------2------------|
A|---------------------------------|------------------------------|
E|---------------------------------|------------------------------|
  de este cuerpecito mío, que se ha convertido en rio

                   F                                 E
e|-----------------1--------------1|-----------0---------------0|
B|--------------1--------------1---|--------0---------------0---|
G|-----------2-------------2-------|-----1---------------1------|
D|--------3-------------3----------|-2---------------2----------|
A|---------------------------------|----------------------------|
E|---------------------------------|----------------------------|
  de este cuerpecito mío, que se ha convertido en rio


e|--0--12|
B|-------|
G|-------|
D|-------|
A|-------|
E|-------|

          Am                                             G
Me cuesta abrir los ojos y luego poco a poco no sea que aun te encuentre
                 Am                                          G
cerca, me guardo tu recuerdo como el mejor secreto que dulce fue tenerte
                  Dm                                   Am
dentro, hay un trozo de luz en esta oscuridad para prestarme calma

             F
e|-----------------1-------1|
B|---------------1-------1--|
G|-------------2-------2----|
D|-----------3-------3------|
A|--------------------------|
E|--------------------------|            E
  el tiempo todo calma,        la tempestad y la calma

             F
e|-----------------1-------1|
B|---------------1-------1--|
G|-------------2-------2----|
D|-----------3-------3------|
A|--------------------------|
E|--------------------------|            E
  el tiempo todo calma,        la tempestad y la calma.


(El B)
                        Am                                       G
Otro minuto en que no estas, una vez mas mi vida se va detrás de ti,
                           Am
dejándome sin paz, sin mi, mientras te sueño despierto
              G
en sabanas de soledad le hago el amor a tu recuerdo
Am                                                 G
no resuelvo olvidarte, odio las noches frías por robarte
                                           Am
y al día por despertar y no encontrarte, quiero ser luz para cubrirte
                             G                                  Am
y en sombras dibujarte y contarte, como se muere y resucita al abrazarte
                                  G
que como yo nadie va a amarte no, fui quien su cuerpo y su alma te
                   Am
entrego, mi eterna reina que nadie destronara ni,
           G
se borrara de mi memoria porque a mi ...


Coro: (BEBE con el "B")
                Am
Siempre me quedara (tu sonrisa)
                  G
la voz suave del mar (el sabor de cada beso)
               Dm
volver a respirar (el olor de tu piel)
                F               E                   Am
la lluvia que caerá sobre este cuerpo y mojara (el deseo de que vuelvas)
                     G
la flor que crece en mi (cada segundo que viví junto a ti)
               Dm
y volveré a reír (el calor de tu cuerpo)
                  F         E
y cada día un instante volveré a pensar en ti ...


(El B)
                Am
siempre me quedara la esperanza de que regresaras
     G
a la tempestad de mi alma calma y paz le darás YO
Am                                          G
seguiré siendo el mismo hombre, que escribirá día tras día
                            Am
mil poesías con tu nombre, que esperas tu mi inspiración
                  G
la razón de mi vida, mi preferida, mi mejor canción
     Am                                   G
una aparición que desde que la vi, se quedo en mi corazón porque a mi ...


Coro:(BEBE con el "B")
                Am
Siempre me quedara (tu sonrisa)
                  G
la voz suave del mar (el sabor de cada beso)
               Dm
volver a respirar (el olor de tu piel)
                F               E                   Am
la lluvia que caerá sobre este cuerpo y mojara (el deseo de que vuelvas)
                     G
la flor que crece en mi (cada segundo que viví junto a ti)
               Dm
y volveré a reír (el calor de tu cuerpo)
                  F         E
y cada día un instante volveré a pensar en ti ...

Am                                     G
OH OH, OH OH…          e|------------------3----------3-|
                       B|---------------0----------0----|
                       G|------------0----------0-------|
                       D|---------0----------0----------|
                       A|-------------------------------|
                       E|-------------------------------|


      Am               e|------------------3----------3-|
                       B|---------------0----------0----|
                       G|------------0----------0-------|
                       D|---------0----------0----------|
                       A|-------------------------------|
                       E|-------------------------------|



http://acordes.lacuerda.net/bebe/siempre_me_quedara-4.shtml
comments
We did not receive enough feedback on this tab! Please rate:
print report bad tab
1 2 3 4 5
I want to post or [tab]
guest
You may want to rate the tab now too:
select rating
Please do not post tabs as comments. Select "correction" instead!