Oops, an error
Loading. Please wait.

In The Name Of Love Tab

3,172 views 93 this week
no commentswrite comment
1 2 3 4 5
x 4
add to favorites
launch autoscroll
font size
0
reset
how to read this tab
guitar tuner
Autoscroll
slow
fast
+/-
esc
set tempo
stop
Author
Difficulty
Capo
intermediate
7th fret
About this tab version
The tab is based off Vinosh Jegatheesan's composition of "In The Name of Love." This version is rearranged in chronological order , so that you can play the entirety of the song. Was this info helpful? Yes No
[Intro]
e|-3-0-5-3-0--3-0--0-3---3-0-5-3-0--3-0--------------------------------------|
B|------------------3--------------------------------------------------------|
G|---------------------------------------------------------------------------|
D|---------------------------------------------------------------------------|
A|--------------------------0------------------------------------------------|
E|-1----------1------------------------3----3--------------------------------| 

[Verse 1]
e|---------------------------------------------------------------------------|
B|---0-1-0---0-1-0---------0-1-0-0-1-0---------------------------------------|
G|-2--------2------2-0----2------2------2-0----------------------------------|
D|----------------------2---------------------2------------------------------|
A|-----------------------------0---------------------------------------------|
E|-----1--------1---------------------3--------------------------------------| 
                                                                                x2 (Both bars twice)
e|-------------0-------------------------------------------------------------|
B|---0-1-3-1-3--3-1-0--------------------------------------------------------|
G|-2--------------------2-1-1------------------------------------------------|
D|------------------------------2-2-0-2-0------------------------------------|
A|--------------------------0------------------------------------------------|
E|-----1-------1------------------------3------------------------------------| 

[Pre-chorus]
e|-------1-0------1-0--------------------------------------------------------|
B|-3-3-1---3-3-1-----0-------------------------------------------------------|
G|---------------------------------------------------------------------------|
D|---------------------------------------------------------------------------|  x2 (Play twice)
A|----------------0----------------------------------------------------------|
E|-------1-------------3-----------------------------------------------------| 

[Chorus/Drop]
e|-3-0-5-3-0--3-0--0-3---3-0-5-3-0--3-0-1-0----------------------------------|
B|------------------3-----------------------------1--------------------------|
G|---------------------------------------------------------------------------|
D|---------------------------------------------------------------------------|  x2 (Play twice)
A|--------------------------0------------------------------------------------|
E|-1----------1------------------------3----3--------------------------------| 

[Verse 2]
e|---------------------------------------------------------------------------|
B|---0-1-0---0-1-0---------0-1-0-0-1-0---------------------------------------|
G|-2--------2------2-0----2------2------2-0----------------------------------|
D|----------------------2---------------------2------------------------------|
A|-----------------------------0---------------------------------------------|
E|-----1--------1---------------------3--------------------------------------| 

e|-------------0-------------------------------------------------------------|
B|---0-1-3-1-3--3-1-0--------------------------------------------------------|
G|-2--------------------2-1-1------------------------------------------------|
D|------------------------------2-2-0-2-0------------------------------------|
A|--------------------------0------------------------------------------------|
E|-----1-------1------------------------3------------------------------------| 

e|---------------------------------------------------------------------------|
B|---0-1-0---0-1-0---------0-1-0-0-1-0---------------------------------------|
G|-2--------2------2-0----2------2------2-0----------------------------------|
D|----------------------2---------------------2------------------------------|
A|-----------------------------0---------------------------------------------|
E|-----1--------1---------------------3--------------------------------------| 

e|--------------0------------0-0---------------------------------------------|
B|---0-1-3-1-3--3-1-0----------3-3-1-1-3-------------------------------------|
G|-2--------------------2----------------------------------------------------|
D|---------------------------------------------------------------------------|
A|----------------------------0----------------------------------------------|
E|-----1-------1------------------------3------------------------------------| 

[Pre-chorus]
e|-------1-0------1-0--------------------------------------------------------|
B|-3-3-1---3-3-1-----0-------------------------------------------------------|
G|---------------------------------------------------------------------------|
D|---------------------------------------------------------------------------|  x2 (Play twice)
A|----------------0----------------------------------------------------------|
E|-------1-------------3-----------------------------------------------------| 

[Chorus/Drop]
e|-3-0-5-3-0--3-0--0-3---3-0-5-3-0--3-0-1-0----------------------------------|
B|------------------3-----------------------------1--------------------------|
G|---------------------------------------------------------------------------|
D|---------------------------------------------------------------------------|  x2 (Play twice)
A|--------------------------0------------------------------------------------|
E|-1----------1------------------------3----3--------------------------------| 

[Bridge]
e|------------------------0-0---0-0-3-3-5-5--5-5-5-3-3-3-0-0-----------------|
B|---------1-1------1-1------------------------------------------------------|
G|-----0-0------2-2----------------------------------------------------------|
D|-2-2-----------------------------------------------------------------------|  x2 (Play twice)
A|--------------0-----------------------------------0------------------------|
E|-1-----------------------3---1-------------------------------3-------------| 

[Pre-chorus]
e|-------1-0------1-0--------------------------------------------------------|
B|-3-3-1---3-3-1-----0-------------------------------------------------------|
G|---------------------------------------------------------------------------|
D|---------------------------------------------------------------------------|  x2 (Play twice)
A|----------------0----------------------------------------------------------|
E|-------1-------------3-----------------------------------------------------| 


[Outro/Drop]
e|-3-0-5-3-0--3-0--0-3---3-0-5-3-0--3-0-1-0----------------------------------|
B|------------------3-----------------------------1--------------------------|
G|---------------------------------------------------------------------------|
D|---------------------------------------------------------------------------|  x4 (Play four times)
A|--------------------------0------------------------------------------------|
E|-1----------1------------------------3----3--------------------------------|

************************************

| x  Dead note

************************************
Suggest correction
comments
print report bad tab
guest
You may want to rate the tab now too:
select rating
Wanna post a correction for this tab? Suggest correction