Oops, an error
Loading. Please wait.

10000 Pesos Tab

version 1
version 1

Whole song

by Beck
7,151 views 9 this week
no commentswrite comment
1 2 3 4 5
x 6
add to favorites
launch autoscroll
font size
0
reset
how to read this tab
guitar tuner
Autoscroll
slow
fast
+/-
esc
set tempo
stop
Help us to improve Ultimate-Guitar.com Take our survey!
×
Author
Difficulty
intermediate
Guitar 1
e|------2-2----------------2-2----------------2-2----------------2-2-------|
B|------3-3-2-2--2-22------3-3-2-2--2-22------3-3-2-2--2-22------3-3-------|
G|--1-1-2-2-2-2--2-22--1-1-2-2-2-2--2-22--1-1-2-2-2-2--2-22--1-1-2-2-2-2-33|
A|--2-2-----2-2--2-22--2-2-----2-2--2-22--2-2-----2-2--2-22--2-2-----2-2-22|
D|--2-2----------------2-2----------------2-2----------------2-2-----2-2-22|
E|-------------------------------------------------------------------------|

e|-------------------------------------------------------------------------|
B|2------------------------------------------------------------------------|
G|2-----Continues throughout whole song------------------------------------|
A|2------------------------------------------------------------------------|
D|-------------------------------------------------------------------------|
E|-------------------------------------------------------------------------|
  Guitar 2
  Starts at
  222

Guitar 2
e|-----------------------------------5-77-775-55/99-910-121212101010/9-97--|
B|---5---------------------------------------------------------------------|
G|-46-64------4-6--4-4/6-4-------------------------------------------------|
A|------7-4-7-------------7------------------------------------------------|
D|-------------------------6/9-7-------------------------------------------|
E|-------------------------------------------------------------------------|

e|--4---2---2/0--57---------------1212-1010/9-1010--121212/141414/12-------|
B|-4-4-----4---------------------------------------------------------------|
G|2---2---0----------------------------------------------------------------|
A|----------------------------------------------------------------------911|
D|-------------------------------------------------------------------------|
E|-------------------------------------------------------------------------|

e|----------------5--5--5--5--5--------------------------------------------|
B|--------------45-45-45-45-45---------------------------------------------|
G|9------------------------------------------------------------------------|
A|-1197-7-7----------------------------------------------------------------|
D|-----9-------------------------------------------------------------------|
E|-------------------------------------------------------------------------|
Suggest correction
comments
print report bad tab
guest
You may want to rate the tab now too:
select rating
Wanna post a correction for this tab? Suggest correction