Oops, an error
Loading. Please wait.

Cellphones Dead Bass Tab

by Beck
3,502 views 1 this week
no commentswrite comment
1 2 3 4 5
excellent!
x 5
add to favorites
launch autoscroll
font size
0
reset
guitar tuner
Autoscroll
slow
fast
+/-
esc
set tempo
stop
Help us to improve Ultimate-Guitar.com Take our survey!
×
Author
Beck
Cellphone's Dead
The Information (Interscope 2006)

This song has two parts.  The beginning bit starts off the song, then the main bit
after 13ish seconds.  The beginning bit comes in at 1:55 for its 13 seconds then begins the
at 3:10.  Check out "Chameleon" by Herbie Hancock off of Head Hunters for the more than 
inspiration.


[beginning bit]

     1   2   3   4   1   2   3   4   1   2   3   4   1   2   3   4
G--------------------------------------------------------------------|
D------------------------------------6---------------9---------------|
A----6---------------4-----------------------------------------------|
E--------------------------------------------------------------------|

     1   2   3   4   1   2   3   4
G------------------------------------|
D--------------------11--------------|
A----9-------------------------------|
E------------------------------------|


[main bit]

     1   2   3   4   1   2   3   4
G-----------------------6------------|
D-------8----------------------6-8-6-|
A--------------------4-----4---------|
E----6-----6-------------------------|
Suggest correction
comments
print report bad tab
guest
You may want to rate the tab now too:
select rating
Please do not post tabs as comments. Select "correction" instead!