Oops, an error
Loading. Please wait.

Devils Haircut Bass Tab

version 3
version 3

Whole song

Interactive

by Beck
535 views 3 this week
no commentswrite comment
1 2 3 4 5
please rate
add to favorites
launch autoscroll
font size
0
reset
guitar tuner
Autoscroll
slow
fast
+/-
esc
set tempo
stop
Help us to improve Ultimate-Guitar.com Take our survey!
×
Author
Difficulty
DEVILS HAIRCUT
by beck

this is my first tab so I picked a really easy song
the ~ means let it ring

g|------------------5~------|    
d|---------0~-0--5----------|      
a|--------------------------|    
e|--------------------------|   

              or

g|------------------0-------|
d|---------------0----------|
a|---------0~-0-------------|
e|--------------------------|

           
im not even sure that there is bass in this part but if there is it goes something like this...

g|--------------------------|
d|--------------------------|   play lightly 
a|--------------------------|
e|---3---3---3---3---3------|

and then it just cycles through each one, listen for the order

-George Willmore
Suggest correction
Give kudos to tab author, rate the tab!
1 2 3 4 5
comments
print report bad tab
guest
You may want to rate the tab now too:
select rating
Please do not post tabs as comments. Select "correction" instead!