Oops, an error
Loading. Please wait.

Devils Haircut Tab

version 3
version 3

Whole song

Interactive

by Beck
10,088 views 3 this week
5 commentsread comments
1 2 3 4 5
x 6
add to favorites
launch autoscroll
font size
0
reset
how to read this tab
guitar tuner
Autoscroll
slow
fast
+/-
esc
set tempo
stop
Help us to improve Ultimate-Guitar.com Take our survey!
×
Author
Difficulty
intermediate
                           Devils Haircut by Beck
                          From The Album ''Odelay''

Tabbed by Adam Skirving aka Skirvy

Email: adam.s09@hotmail.com

Tuning: Drop D  : DADGBe




Main Riff 0:00-0:07
|--------------|
|--------------|
|--------------|  X4
|--------------|
|0----0---5--9-|
|0----0---5--9-|



Main Riff 0:23-0:30
|--------------|
|--------------|
|--------------|  X4
|--------------|
|0----0---5--9-|
|0----0---5--9-|



Riff 2 1:06-1:13
|-------------------------------------------------------------|
|-------------------------------------------------------------|
|5/7----5/7----5-------7--5-----------------------------------|
|-------------------7--------7-----5b6--5--5----5h7-----------|
|-------------------------------5--------------------5--8-----|
|-------------------------------------------------------------|



Riff 2 2:43-2:50
|-------------------------------------------------------------|
|-------------------------------------------------------------|
|5/7----5/7----5-------7--5-----------------------------------|
|-------------------7--------7-----5b6--5--5----5h7-----------|
|-------------------------------5--------------------5--8-----|
|-------------------------------------------------------------|



Main Riff 2:50-3:08
|--------------|
|--------------|
|--------------|  X9
|--------------|
|0----0---5--9-|
|0----0---5--9-|


| /  slide up
| \  slide down
| h  hammer-on
| p  pull-off
| ~  vibrato
| +  harmonic
| x  Mute note
============================================================================
Suggest correction
comments
print report bad tab
5 comments total. Showing first comments.
0 reply
habalushy 948 Oct 09, 2008 03:08 PM

the main riff is wrong
it goes

-------------
-------------
-------------
-----------3-
--0--0--5--3-
--0--0--5----

0 reply
Morgan-D 10 Nov 07, 2008 06:12 PM

Aint enough Beck tabs on this damn site

0 reply
a92093r 10 Dec 24, 2008 12:25 AM

pretty decent but i think that ones guy correction is right, as for the 2nd riff and sounds pretty good but there's something that seems not perfect idk, but maybe i just can't get the right tone on my guitar....also i agree with morgan-d lol

guest
You may want to rate the tab now too:
select rating
Wanna post a correction for this tab? Suggest correction