Oops, an error
Loading. Please wait.

Girl tab

version 1
version 1

Whole song

Interactive

by Beck
39,624 views 15 this week
9 commentsread comments
1 2 3 4 5
x 20
add to favorites
×
Save as Personal and add changes to this tab that will be seen only by you. Learn more ›
×
You can save this tab as Personal to edit and correct it or add notes. All changes will be seen only by you. Learn more »
launch autoscroll
font size
0
reset
how to read this tab
guitar tuner
edit
Autoscroll
slow
fast
+/-
esc
set tempo
stop
Author
Difficulty
-------------------------------------------------------------------------------
                        Girl- Beck
-------------------------------------------------------------------------------
Tabbed by:Neffhead
Email:neffhead@gmail.com
Pretty sure it’s accurate but comments welcome. Please rate it
Standard tuning
Synth 1
e|--------------------------------------------------------------|
B|--------------------------------------------------------------|
G|--------------------------------------------------------------|
D|--------------------------------------------------------------|      X2
A|----------------------------------------------------4-4-44-4--|
E|-----6----6-------6----6---6--6—4---4---4-4-------------------|
Synth 2
e|-----11-----------11------12-------11--------11------------------------------------------|
B|-----------14------------------------------14---------12----12------12 12---14-------12--|
G|-----------------------------------------------------------------------------------------|
D|-----------------------------------------------------------------------------------------|
A|-----------------------------------------------------------------------------------------|
E|-----------------------------------------------------------------------------------------|
Guitar verse
e|---------------------------------------------------------------------------------|
B|---------------------------------------------------------------------------------|
G|---------------------------------------------------------------------------------|
D|------8---------8--------8-----8-----8-----8-----8------8----8----8-----8-----8--|
A|---------------------------------------------------------------------------------|
E|--6--------6----------6------6----6-----6-----6-----6-----6----6-----6----6------|

e|------------------------------------------------------------------------------|
B|------------------------------------------------------------------------------|
G|------------------------------------------------------------------------------|
D|--------6------6-------6-----6----6----6--------11---11---11---11--11-----11--|
A|------------------------------------------------------------------------------|
E|-----4------4--------4----4-----4----4-------/9----9------9----9----9-----9---|


Pre-chorus
e|-----------------------------------------------------------------------------|
B|-----------------------------------------------------------------------------|
G|-----------------------------------------------------------------------------|
D|------3-----3-----3---3---3---------------6-----6----6---6----6--------------|
A|-----------------------------------------------------------------------------|
E|---1-----1-----1---1---1-------/3------4----4-----4---4---4------------------| ) X2

e|------------------------------------------------------------------------------|
B|------------------------------------------------------------------------------|
G|----------8----8----8----8----8--8----8--8----8----8-----8------8-------------|
D|------------------------------------------------------------------------------|
A|--5-----6---6----6----6---6---6----6---6---6---6------6----6------------------|
E|------------------------------------------------------------------------------|

e|-----------------------------------------------------------------------------------------------------------------------|
B|-----------------------------------------------------------------------------------------------------------------------|
G|-----------------------------------------------------------------------------------------------------------------------|
D|-----3----3---3--3----3------------6---6---6---6----6----6--------5----5---5-----5-----5---5------4---4----4----4---4--|
A|-----------------------------------------------------------------------------------------------------------------------|
E|--1----1---1---1---1-----/3-----4---4---4---4----4---4--------3----3----3-----3----3----3------2---2----2---2----2-----|
Chorus
e|----------------------------------------------------------------------------------------------|
B|----------------------------------------------------------------------------------------------|
G|---10---10---10--10--10---10-----8---8----8---8--8---8-----15--15---15-----15---15----15------|
D|---10---10---10--10---10--10-----8---8----8---8---8--8-----15--15---15-----15---15-----15-----|   X4
A|----8-----8----8----8----8----8-----\6---6----6---6---6---6---/13---13---13----13---13----13--|
E|----------------------------------------------------------------------------------------------|
verse
chorus
Guitar solo(with slide)
e|-----------------------------------------------------------------------------|
B|--------------5--------------------------------------------------------------|
G|------------------1--4--1--6---------4-------4-/6----------------------------|   X4
D|--3--5-----------------------------6------6----------------------------------|
A|--4-/6-----------------------------------------------------------------------|
E|-----------------------------------------------------------------------------|


e|---------------------------------------------------------------------------------------------------------|
B|---------------------------------------------------------------------------------------------------------|
G|------------7-------5----------------------------------------------------------0---0---------------------|
D|--6-/8--------x-------x-------6---x-5—x--6-/8-----------------6-6-\1-----------1---3/4---4/6-------6-6\--|   X2
A|------------------x-------x------------------------------------------------------------------------------|
E|----------------------------------------------------------4-/6-------------------------------------------|
repeat chorus to end

| /  slide up
| \  slide down
| h  hammer-on
| p  pull-off
| ~  vibrato
| +  harmonic
| x  Mute note
===============================================================================
Suggest correction
Creating personal tab
Creating personal tab
You can edit any tab online and save it as your Personal.

You can edit, replace or remove any tab part or add personal notes – all changes will be seen only by you.

Personal tabs can be accessed anytime from any device, even offline.
Learn more »
comments
print report bad tab
9 comments total. Showing first comments.
0 reply
pnkluver182 10 Dec 29, 2005 03:31 AM

it sounds pretty accurate....congrats that you actually tabbed the solo! sounds good!

0 reply
jpf418 50 Feb 24, 2006 05:29 PM

when I play the solo along weith the track
sounds nothing like it
unless, of course, a slide changes the tuning entirely?

0 reply
FraserG 10 May 19, 2006 05:44 AM

see the start of the song where it does the series of "beeps" on the 11th 12th and 14th frets that is almost right but not completely unless my guitar is out of tune

guest
You may want to rate the tab now too:
select rating
Wanna post a correction for this tab? Suggest correction