Oops, an error
Loading. Please wait.

Go It Alone bass

by Beck
17,491 views 60 this week
2 commentsread comments
1 2 3 4 5
x 8
add to favorites
×
Save as Personal and add changes to this tab that will be seen only by you. Learn more ›
×
You can save this tab as Personal to edit and correct it or add notes. All changes will be seen only by you. Learn more »
launch autoscroll
font size
0
reset
guitar tuner
edit
Autoscroll
slow
fast
+/-
esc
set tempo
stop
Author
Difficulty
-------------------------------------------------------------------------------
			     GO IT ALONE - Beck
-------------------------------------------------------------------------------

Tabbed By : TomleHat
e-mail: thom25j@yahoo.co.uk

Tuning: Standard

I saw the proper tablature for this once and its was in C# tuning 
so you could get to the really bass notes. I did tab this with E 
dropped to C# at first but i cant be bothered to change my guitar 
tuning just for one song any more, and im guessing you won't want 
to either. I've tabbed it more than i really should have, you only 
need to know the verse, chorus and bridge parts and just add fills 
where you feel like it. Anyways...I strongly recommend you get more 
Beck and Jack White music (as he's the bass player), as they are two 
of the best musicians around right now. 

VERSE:
G|---------------------------------------------------|
D|---------------------------------------------------|
A|-6-6-6-4-6-6-6---4-6-7-6-4-6-4---------------------|
E|---------------------------------4-4-4-2-4-4-4---2-|

G|---------------------------------------------------------------|
D|-------------------------------------------------6/8-8-6-------|
A|-6-6-6-4-6-6-6---4-6-7-6-4-6-4---------------------------8-7-4-|
E|---------------------------------4-4-4-2-4-4-4-----------------|

G|-----------------------------------------------------|
D|-----------------------------------------------------|
A|-6-6-6-4-6-6-6---4-7-7-6-----------------------------|
E|---------------------------4-4-4-2-4-4-4---2-4/6-4-2-|

G|-------------------------------------------------------------|
D|---------------------------------6--6-6b4---4----------------|
A|-6-6-6-4-6-6-6---4-6-7-6-4-6-4------------6---6-4b6b4--------|
E|------------------------------------------------------2-4-2\-|

VERSE

CHORUS: (Play hard)
G|---------------------------------|-----------------------------------|
D|---------------------------------|-6---6-4-6---6-4-6b(7)b6-4-6-4-----|
A|-6---6-4-6---6-4-6---6-4-6-4-6-4-|-------------------------------6-4-| x2
E|---------------------------------|-----------------------------------|

VERSE 2:
G|-----------------------------------------------------------|
D|-----------------------------------------------------------|
A|-6-6-6-4-6-6-6---4-6-7-6-4-6-4-----------------------------|
E|---------------------------------4-4-4-2-4-4-4---2-4/6-4-2-|

G|-------------------------------------------------------------|
D|---------------------------------6--6-6b4---4----------------|
A|-6-6-6-4-6-6-6---4-6-7-6-4-6-4------------6---6-4b6b4--------|
E|------------------------------------------------------2-4-2\-|

G|-----------------------------------------------------------|
D|-----------------------------------------------------------|
A|-6-6-6-4-6-6-6---4-6-7-6-4-6-4-----------------------------|
E|---------------------------------4-4-4-2-4-4-4---2-4/6-4-2-|

G|------------------------------------------------------------|
D|------------------------------------------------6/8-6-4-----|
A|--6-6-6-4-6-6-6---4-6-7-6-4-6-4-------------------------6-4-|
E|----------------------------------4-4-4-2-4-4-4-------------|

CHORUS

BRIDGE:
G|---------------------------------------|
D|---------------------------------------|
A|-6-6-6-4-6-6-6-----6-6-6-4-6-6-6---7---| x2
E|---------------------------------------|

G|--------------------------------------------------|
D|--------------------------------------------------|
A|-4/6-6-6~-6---4/6-6-6~-6---4/6-6-6~-6---4/6-6-6p4-|
E|--------------------------------------------------|

G|-----------------------------------------------------|
D|-----------------------------------------------------|
A|-4/6-6-6~-6---4/6-6-6~-6---4/6-6-6~-6---4/6-6-6-4-8\-|
E|-----------------------------------------------------|

VERSE
CHORUS x5

OUTRO: (muted)
G|----------------------------------------------------------|
D|----------------------------------------------6/8-6-4-----|
A|-6-6-6-4-6-----4-6-4-6-4-6-4--------------------------6-4-|
E|--------------------------------4-4-4-2-4-----------------|

G|--------------------------------------------------------|
D|----------------------------------------------8-6-------|
A|-6-6-6-4-6-6-6----4-6-7-6-4-6---------------------8-7-4-|
E|---------------------------------4-4-4-2-4--------------|

G|-----------------------------------------------------------|
D|-------------------------------6--6-6b4---4----------------|
A|-6-6-6-4-6-----4-6-4-6-7-6--------------6---6-4b6b4--------|
E|----------------------------------------------------2-4-2\-|

G|-------------------------------------------------------|
D|-------------------------------------------------------|
A|-6-6-6-4-6-6-6----4-6-4-6-7-6--------------------------|
E|---------------------------------4-4-4-2-4----4/6--4-2-|

Bass fades (not worth tabbing)

| /  slide up
| \  slide down
| h  hammer-on
| p  pull-off
| ~  vibrato
===============================================================================

            
            
Suggest correction
Creating personal tab
Creating personal tab
You can edit any tab online and save it as your Personal.

You can edit, replace or remove any tab part or add personal notes – all changes will be seen only by you.

Personal tabs can be accessed anytime from any device, even offline.
Learn more »
comments
print report bad tab
2 comments total.
+1 reply
Gavinthorp 10 Jun 30, 2011 03:59 PM

Playing this in drop D is slightly easier. You can do the 4-6 routine on the 3rd and 4th strings instead of the 2-4 routine on the 4th string.

0 reply
grantwurry 160 Oct 05, 2014 04:22 PM

Awesome tab

guest
You may want to rate the tab now too:
select rating
Wanna post a correction for this tab? Suggest correction