Oops, an error
Loading. Please wait.

Golden Age intro tab

version 1
version 1

Intro

Interactive

by Beck
10,984 views 9 this week
4 commentsread comments
1 2 3 4 5
x 8
add to favorites
×
Save as Personal and add changes to this tab that will be seen only by you. Learn more ›
×
You can save this tab as Personal to edit and correct it or add notes. All changes will be seen only by you. Learn more »
launch autoscroll
font size
0
reset
how to read this tab
guitar tuner
edit
Autoscroll
slow
fast
+/-
esc
set tempo
stop
Author
----------------------------------------------------------------------------                              
THE GOLDEN AGE 
----------------------------------------------------------------------------
Band Name: Beck
Song Name: The Golden Age
Album Name: Sea Change
Tuning: Standard
Tabber: weezerguy
Tabber's E-mail: greenday@att.net
                                  |- - - - - - - - - - - - |
                                  | E  0   F#Min  2   A  0 |
                                  |    0          2      2 |
                                  |    1          2      2 |
                                  |    2          4      2 |
                                  |    2          4      0 |
                                  |    X          2      X |
Guitar1                                  |- - - - - - - - - - - - |
    E            F#min   A     E            F#Min   A
e|--0-0-000-0-00-2-2-222-0-00--0-0-000-0-00-2-2-222-0-00|
B|--0-0-000-0-00-2-2-222-2-22--0-0-000-0-00-2-2-222-2-22|
G|--1-1-111-1-11-2-2-222-2-22--1-1-111-1-11-2-2-222-2-22|
D|--2-2-222-2-22-4-4-444-2-22--2-2-222-2-22-4-4-444-2-22|
A|--2-2-222-2-22-4-4-444-0-00--2-2-222-2-22-4-4-444-0-00|
E|---------------2-2-222--------------------2-2-222-----|

e|--4---4-0---0---0----4---4-0---0---0----|
B|----0-----2------------0-----2----------|
G|--------------2---1--------------2---1--|
D|----------------------------------------|
A|----------------------------------------|
E|----------------------------------------|

There you have it! :) Have fun!!!!
Band Name: Beck
Song Name: The Golden Age 
Album Name: Sea Change
Tabber: weezerguy
Tabber's E-mail: greenday@att.net

            
            
Suggest correction
Creating personal tab
Creating personal tab
You can edit any tab online and save it as your Personal.

You can edit, replace or remove any tab part or add personal notes – all changes will be seen only by you.

Personal tabs can be accessed anytime from any device, even offline.
Learn more »
comments
print report bad tab
4 comments total. Showing first comments.
+1 reply
emplaysguitar92 10 Mar 04, 2007 09:11 AM

its good


but when i play it with standard tuning i think its more like this:

e|--4---4-0---0---0----4---4-0---0---0----|
B|----7-----2------------7-----2----------|
G|--------------2---1--------------2---1--|
D|----------------------------------------|
A|----------------------------------------|
E|----------------------------------------|


the same as yours. except for a minor change: the first string goes from 4 to 7 back to 4. or at least thats what i hear.

0 reply
tospol 30 Jun 12, 2007 02:52 AM

picking part is wrong

+4 reply
fruitloof 157 Jul 24, 2012 06:54 AM

I don't Know if it's just me, but the I'm pretty sure that the second note goes up, not down. I play it like this:
e|--4-7-4-0---0---0----4---4-0---0---0----|
B|----------2------------7-----2----------|
G|--------------2---1--------------2---1--|
D|----------------------------------------|
A|----------------------------------------|
E|----------------------------------------|

guest
You may want to rate the tab now too:
select rating
Wanna post a correction for this tab? Suggest correction