Oops, an error
Loading. Please wait.

I Think Im In Love bass

version 2
version 2

Whole song

by Beck
2,722 views 1 this week
2 commentsread comments
1 2 3 4 5
x 4
add to favorites
×
Save as Personal and add changes to this tab that will be seen only by you. Learn more ›
×
You can save this tab as Personal to edit and correct it or add notes. All changes will be seen only by you. Learn more »
launch autoscroll
font size
0
reset
guitar tuner
edit
Autoscroll
slow
fast
+/-
esc
set tempo
stop
Author
Difficulty
Second track off Information
Played with a pick

Main line:

G----------8-----------8-----------------------|
D------10-------8--10--------------------------|
A--88------------------------------------------|
E----------------------------------------------|

Chorus:

"I think I'm in love..."
G----------------------------------------------|
D----------------------------------------------|
A------------66666666--------------------------|
E--44444444------------------------------------|


"say so.."
G----------8-----------8-----------------------|
D------10-------8--10--------------------------|
A--88------------------------------------------|
E----------------------------------------------|

G----------------------------------------------|
D----------------------------------------------|
A------------66666666--------------------------|
E--44444444------------------------------------|

Bridge:

G----------------------------------------------|
D----------------------------------------------|
A----------------------------------4-x-4-------|
E--5-x-5---3-55-6-x66--3-x-3-333x--------------|

(1:45)
G----------------------------------------------|
D----------------------------------------------|
A----------------------------------------------|
E--5-x-5----3-55-5-x-5---3-x-333-----6-x-666---|

G----------------------------------------------|
D----------------------------------------------|
A---4-x-44444444\000000------------------------|
E----------------------------------------------|

then go back to the main riff and vamp on it. Enjoy!


            
            
Suggest correction
Creating personal tab
Creating personal tab
You can edit any tab online and save it as your Personal.

You can edit, replace or remove any tab part or add personal notes – all changes will be seen only by you.

Personal tabs can be accessed anytime from any device, even offline.
Learn more »
comments
print report bad tab
2 comments total.
+1 reply
SoftParade1967 512 Oct 03, 2007 09:58 AM

Main line
G-------8------10|
D----10---8-10---|
A-88-------------|
E----------------|

Other than that good

0 reply
SoftParade1967 512 Oct 03, 2007 09:59 AM

oh by the way and do that during that chorus part too. obviously

guest
You may want to rate the tab now too:
select rating
Wanna post a correction for this tab? Suggest correction