Oops, an error
Loading. Please wait.

Jack-Ass tab

version 2
version 2

Whole song

Interactive

by Beck
30,502 views 30 this week
no commentswrite comment
1 2 3 4 5
x 12
add to favorites
×
Save as Personal and add changes to this tab that will be seen only by you. Learn more ›
×
You can save this tab as Personal to edit and correct it or add notes. All changes will be seen only by you. Learn more »
launch autoscroll
font size
0
reset
how to read this tab
guitar tuner
edit
Autoscroll
slow
fast
+/-
esc
set tempo
stop
Author
Difficulty
Beck:jack-ass
Tabbed By:Alex
E-Mail: Nirvana12390@sbcglobal.net

This part is played over and over throughout the song

e-------------------------------------------2---------------|
B-----15-17----15-17----15-17----15-17------3--3-5---3-5----|
G--14-------14-------14-------14--------14--2------2-----2--|
D-----------------------------------------------------------|
A-----------------------------------------------------------|
E-----------------------------------------------------------|

D Riff

e-2---------------------------------------
B-3--3-5----3-5---------------------------
G-2------2-------2------------------------
D-----------------------------------------
A-----------------------------------------
E-----------------------------------------


A                             D
I been drifting along in the same stale shoes
A                               D
Loose ends tying a noose in the back of my mind
A
If you thought that you were making your way
             D
To where the puzzles and pagans lay
             A                           D  (D riff)
I'll put it together: Its a strange invitation
        A                               D
When I wake up someone will sweep up my lazy bones
    A                               D
And we will rise in the cool of the evening
A
I remember the way that you smiled
         D
When the gravity shackles were wild
        A                                        D (D riff)
And something is vacant when I think its all beginning
A                                  D
I been drifting along in the same stale shoes
A                                  D
Loose ends tying the noose in the back of my mind
A
If you thought that you were making your way
              D
To where the puzzles and pagans lay
            A                           D (D riff)
Ill put it together: Its a strange invitation.



I dont know the solo.
Suggest correction
Creating personal tab
Creating personal tab
You can edit any tab online and save it as your Personal.

You can edit, replace or remove any tab part or add personal notes – all changes will be seen only by you.

Personal tabs can be accessed anytime from any device, even offline.
Learn more »
comments
print report bad tab
guest
You may want to rate the tab now too:
select rating
Wanna post a correction for this tab? Suggest correction