Oops, an error
Loading. Please wait.

Loser Tab

version 2
version 2

Whole song

Interactive

by Beck
75,964 views 33 this week
1 commentread comment
1 2 3 4 5
worth learning
x 5
add to favorites
launch autoscroll
font size
0
reset
how to read this tab
guitar tuner
Autoscroll
slow
fast
+/-
esc
set tempo
stop
Help us to improve Ultimate-Guitar.com Take our survey!
×
Contributor
Difficulty
Tuning
Tabbers playing skills
Duh4994 122
novice
D A D G B E
intermediate
                         LOSER by Beck


Tabbed By: Eric G.
Tuning: Drop-D

(D,A,D,G,B,e)




  Riff 1 acoustic guitar w/ slide
e|-------------------------------------------------------------------------|
B|-------------------------------------------------------------------------|
G|--------------------------slow slide-------------------------------------|
D|-------------0---------5\------------------------------------------------|
A|-----0--0/5-----4/5----5\------------------------------------------------|
D|-----0--0/5-----4/5----5\------------------------------------------------|

  Riff 2 sitar transcribed for guitar

e|----------0----2-2-------0-----------0----2-2------3---------------------|
B|-----3-3----3--------3-----3----3-3----3--------3----3-------------------|
G|-------------------------------------------------------------------------|
D|-------------------------------------------------------------------------|
A|-------------------------------------------------------------------------|
E|-------------------------------------------------------------------------|

  Riff 3 clean electric 
e|-------------------------------------------------------------------------|
B|-------------------------------------------------------------------------|
G|---------5br-------------5br-------7-------------------------------------|
D|---0/7-------------0/7---------------------------------------------------|
A|-------------------------------------------------------------------------|
E|-------------------------------------------------------------------------|

       Lyrics:

   In the time of chimpanzees I was a monkey
Butane in my veins and Im out to cut the junkie
With the plastic eyeballs, spray-paint the vegetables
Dog food stalls with the beefcake pantyhose
Kill the headlights and put it in neutral
Stock car flamin with a loser and the cruise control
Babys in reno with the vitamin d
Got a couple of couches, sleep on the love-seat
Someone came in sayin Im insane to complain
About a shotgun wedding and a stain on my shirt
Dont believe everything that you breathe
You get a parking violation and a maggot on your sleeve
So shave your face with some mace in the dark
Savin all your food stamps and burnin down the trailer park

Yo. cut it.

Soy un perdedor
Im a loser baby, so why dont you kill me? 

Soy un perdedor
Im a loser baby, so why dont you kill me? 

Forces of evil on a bozo nightmare
Ban all the music with a phony gas chamber
cuz ones got a weasel and the others got a flag
Ones on the pole, shove the other in a bag
With the rerun shows and the cocaine nose-job
The daytime crap of the folksinger slob
He hung himself with a guitar string
A slab of turkey-neck and its hangin from a pigeon wing
You cant write if you cant relate
Trade the cash for the beef for the body for the hate
And my time is a piece of wax fallin on a termite
Thats chokin on the splinters

Soy un perdedor
Im a loser baby, so why dont you kill me? 
(get crazy with the cheese whiz)
Soy un perdedor
Im a loser baby, so why dont you kill me? 
(drive-by body-pierce)
(yo bring it on down)
Soooooooyy....

(Im a driver, Im a winner; things are gonna change I can feel it)

Soy un perdedor
Im a loser baby, so why dont you kill me? 
(I cant believe you)
Soy un perdedor
Im a loser baby, so why dont you kill me? 
Soy un perdedor
Im a loser baby, so why dont you kill me? 
(schprechen sie deutches, baby)
Soy un perdedor
Im a loser baby, so why dont you kill me? 
(know what Im sayin? ) 

      Song Order:

   Intro- Riff 1 x8

   Verse 1-Riff 2, Riff 1 over riff 2 comes in at "Someone came in sayin..."

   Chorus- Riff 1 + Riff 2

   Verse 2- Riff 1 in at "rerun of shows..." Riff 3 at "you cant write..."

   Chorus- Riff 1 + Riff 2

   Bridge- riff 1 comes in at end of soooyyy and ends at "things are gonna  
   change

   Chorus- Riff 1 + Riff 2 till end

       
comments
print report bad tab
1 comment total.
+2 reply
DirtyFryBassGuy 102 wrote on January 14 2008, 05:21 pm

this is actually in open d tuning. . .

I want to post or [tab]
guest
You may want to rate the tab now too:
select rating
Please do not post tabs as comments. Select "correction" instead!