Oops, an error
Loading. Please wait.

Loser Tab

version 4
version 4

Whole song

Interactive

by Beck
11,593 views 6 this week
no commentswrite comment
1 2 3 4 5
please rate
add to favorites
launch autoscroll
font size
0
reset
how to read this tab
guitar tuner
Autoscroll
slow
fast
+/-
esc
set tempo
stop
Help us to improve Ultimate-Guitar.com Take our survey!
×
Author
Difficulty
Tuning
intermediate
D A D G B E
Drop D tunning low to high: D A D G B E 

Key: / slide up
     \ slide down
     h hammer on
    () optional

Listen to song for correct order. There are 3 Guitars playing here.

Intro/Chorus 
Acous. w/slide   
E|----------------------------------| 
B|----------------------------------|
G|----------------------------------| (8x)
D|----------0-------0------5\--(0)--|
A|----------0-------0------5\--(0)--|
D|-0---/4------/4----------5\--(0)--|

Verse     
E|-----------------------------------------| 
B|-----------------------------------------|
G|-7-------9----7--11---11--------9----7---|
D|-----0--------------------0--0-----------|
A|-----------------------------------------|
D|-----------------------------------------|           
                                             (6x) 
E|-----------------------------------------|      
B|--------------------------------8--------|      
G|-7-------9---7--11---11---------------7--|     
D|-----0-------------------0--0------------|  
A|-----------------------------------------|  
D|-----------------------------------------|  

Chorus

Verse 2 

  FILL 1
E|--------------------|--------------------|
B|--------------------|--------------------|
G|-------5------------|-------5------7---5-|
D|-5h7----------------|-5h7----------------|
A|--------------------|--------------------|
D|--------------------|--------------------|

E|--------------------|--------------------|
B|--------------------|--------------------|
G|-------5------------|-------5------------|
D|-5h7----------------|-5h7----------------|
A|--------------------|--------------------|
D|--------------------|--------------------|

Chorus 

Bridge                  play 1st meas. 4 times again and end on:
E|----------|----------| |----3--|
B|----3--1--|----3--2--| |-2-----|
G|-2--------|-2--------| |-------|
D|----------|----------| |-------|
A|----------|----------| |-------|
D|----------|----------| |-------|
     8x         2x

Chorus

Fade out.
Suggest correction
What's this?
You can suggest a correction to this tab. Community and Mods will review your correction and vote to approve or reject it.
comments
We did not receive enough feedback on this tab! Please rate:
print report bad tab
1 2 3 4 5
guest
You may want to rate the tab now too:
select rating
Please do not post tabs as comments. Select "correction" instead!