Oops, an error
Loading. Please wait.

Lost Cause Tab

version 3
version 3

Whole song

Interactive

by Beck
58,756 views 132 this week
1 commentread comment
1 2 3 4 5
excellent!
x 16
add to favorites
launch autoscroll
font size
0
reset
how to read this tab
guitar tuner
Autoscroll
slow
fast
+/-
esc
set tempo
stop
Help us to improve Ultimate-Guitar.com Take our survey!
×
Author
Difficulty
intermediate
There is two guitar parts for this song... this is one of 'em..
the other one, no one would recognize what you're playing.. this one you can pretty much 
ill put up the second part one day.. or when i feel like it...

ENJOY:)

120-bpm
 

[Intro]

e|-------------0--------------------------------|
B|----------1--------------------1-----------1--|
G|------2------------0-----0-----------0--------|  (4x)
D|--------3-------3-----------2-----------0-----|
A|----------------------3-----------2-----------|
E|----1-----------------------------------------|


[Verse]

          your sorry eyes...
e|----------------------------------------------|
B|--------1--------1---------1--------1---------|
G|----2--------2---------0--------0-------------|
D|------3--------3---------2--------0-----------|
A|---------------------3--------2---------------|
E|--1--------1----------------------------------|

        they cut through the bone...
e|-----------------0----------------------------|
B|--------1-----------------1--------1----------|
G|----2--------2--------0--------0--------------|
D|------3--------3--------2--------0------------|
A|--------------------3--------2----------------|
E|--1--------1----------------------------------|

        they make it hard...
e|----------------------------------------------|
B|--------1---------------3-1--------1----------|
G|----2--------2---2----0--------0--------------|
D|------3--------3-----------------0------------|
A|--------------------3--------2----------------|
E|--1--------1----------------------------------|

           to leave you alone...
e|----------------0---------------0-------------|
B|----------1-----------------3-----------------|
G|----2-2-------------2-------1-------0---------|
D|--------2---------2-----2---------2-----------|
A|--0----------0------------2-------------------|
E|-----------------------0------0---------------|

             Leave you here...
e|-----------------0----------------------------|
B|--------1---------------3-1--------1----------|
G|----2--------2--------0--------0--------------|
D|------3--------3-----------------0------------|
A|--------------------3--------2----------------|
E|--1--------1----------------------------------|

     Wearing your wounds
e|----------0-----------------------------------|
B|--------1--------------1--------1-------------|
G|----2---------0----0--------0-----------------|
D|------3-----3--------2--------0---------------|
A|-----------------3--------2-------------------|
E|--1-------------------------------------------|

       waving your guns...
e|----------0-----------------------------------|
B|--------1---------------1--------1------------|
G|----2----------0----0--------0----------------|
D|------3------3--------2--------0--------------|
A|------------------3--------2------------------|
E|--1-------------------------------------------|

       at somebody new...
e|-----------0---------------0------------------|
B|--------1---------------3---------------------|
G|----2----------0----1----------0--------------|
D|------2------2--------2------2----------------|
A|--0-------------------------------------------|
E|------------------0---------------------------|


[Chorus]

            Baby, you're lost...
e|-----------0-------------0--------------------|
B|--------1-------------3-----------------------|
G|----2-------------4---------------------------|
D|------3------3------5------5------------------|
A|----------------------------------------------|
E|--1-------------3-----------------------------|

              Baby, you're lost...
e|---------------------------0------------------|
B|--------1---------------3---------------------|
G|----2--------2------4-------------------------|
D|------3--------3------5------5----------------|
A|----------------------------------------------|
E|--1--------1------3---------------------------|

                  Baby you're a lost...
e|-----------0------------0---------------------|
B|--------1------------3------------------------|
G|----2------------4----------------------------|
D|------3------3-----5------5-------------------|
A|----------------------------------------------|
E|--1-------------3-----------------------------|

    cause...
e|-----------0------------0---------------------|
B|--------1------------------1------------------|
G|----0----------0----0----------0--------------|
D|------2------2--------2------2----------------|
A|--3---------------3---------------------------|
E|----------------------------------------------|


[Verse 2]

        Theres too many people...
e|----------------------------------------------|
B|--------1--------1--------1--------1----------|
G|----2--------2--------0--------0--------------|
D|------3--------3--------2--------0------------|
A|--------------------3--------2----------------|
E|--1--------1----------------------------------|

        you used to know...
e|-----------------0----------------------------|
B|--------1-----------------1--------1----------|
G|----2--------2--------0--------0--------------|
D|------3--------3--------2--------0------------|
A|--------------------3--------2----------------|
E|--1--------1----------------------------------|

          They see you comin...
e|----------------------------------------------|
B|--------1---------------3-1--------1----------|
G|----2--------2---2----0--------0--------------|
D|------3--------3-----------------0------------|
A|--------------------3--------2----------------|
E|--1--------1----------------------------------|

            they see you go...
e|---------------0-----------------0------------|
B|----------1-----------------3-----------------|
G|----2-2------------2--------1--------0--------|
D|--------2--------2------2----------2----------|
A|--0----------0------------2-------------------|
E|----------------------0--------0--------------|

         They know your secret...
e|-----------------0----------------------------|
B|--------1---------------3-1--------1----------|
G|----2--------2--------0--------0--------------|
D|------3--------3-----------------0------------|
A|--------------------3--------2----------------|
E|--1--------1----------------------------------|

             They know your theirs
e|-----------0----------------------------------|
B|--------1---------------1--------1------------|
G|----2----------0----0--------0----------------|
D|------3------3--------2--------0--------------|
A|------------------3--------2------------------|
E|--1-------------------------------------------|

          The town is crazy...
e|-----------0----------------------------------|
B|--------1---------------1--------1------------|
G|----2----------0----0--------0----------------|
D|------3------3--------2--------0--------------|
A|------------------3--------2------------------|
E|--1-------------------------------------------|

            Nobody cares...
e|-----------0---------------0------------------|
B|--------1---------------3---------------------|
G|----2----------0----1----------0--------------|
D|------2------2--------2------2----------------|
A|--0-------------------------------------------|
E|------------------0---------------------------|


[Chorus]

            Baby, you're lost...
e|-----------0-------------0--------------------|
B|--------1-------------3-----------------------|
G|----2-------------4---------------------------|
D|------3------3------5------5------------------|
A|----------------------------------------------|
E|--1-------------3-----------------------------|

              Baby, you're lost...
e|---------------------------0------------------|
B|--------1---------------3---------------------|
G|----2--------2------4-------------------------|
D|------3--------3------5------5----------------|
A|----------------------------------------------|
E|--1--------1------3---------------------------|

                  Baby you're a lost...
e|-----------0------------0---------------------|
B|--------1------------3------------------------|
G|----2------------4----------------------------|
D|------3------3-----5------5-------------------|
A|----------------------------------------------|
E|--1-------------3-----------------------------|

    cause...
e|-----------0------------3---------------------|
B|--------1-----------------2-------------------|
G|----0----------0----2---------0---------------|
D|------2------2--------2-----2-----------------|
A|--3---------------0---------------------------|
E|----------------------------------------------|


[Verse 3]

           I'm tired of fighting...
e|-----------0-------------0--------------------|
B|--------1-------------3-----------------------|
G|----2-------------4---------------------------|
D|------3------3------5------5------------------|
A|----------------------------------------------|
E|--1-------------3-----------------------------|

             I'm tired of fighting...
e|---------------------------0------------------|
B|--------1---------------3---------------------|
G|----2--------2------4-------------------------|
D|------3--------3------5------5----------------|
A|----------------------------------------------|
E|--1--------1------3---------------------------|

                  Fighting for a lost...
e|-----------0-------------0--------------------|
B|--------1-------------3-----------------------|
G|----2-------------4---------------------------|
D|------3------3------5------5------------------|
A|----------------------------------------------|
E|--1-------------3-----------------------------|

    cause...
e|--------------------------0-------------------|
B|--------1--------3----1--------1--------------|
G|----0--------0---------------------0----------|
D|------2--------2--------2--------2------------|
A|--3--------3--------3--------3----------------|
E|----------------------------------------------|

  Bridge:
              Theres a place where you are...
e|-------------0------------3--0----------------|
B|--------2--------0--1-----1-------------------|
G|----2-----------------2----------0------------|
D|------2--------2--------3------3--------------|
A|--0--------0----------------------------------|
E|----------------------------------------------|

    Goin
e|-------------0------------0-------------------|
B|--------1-------------1-----------------------|
G|----0------------0-------------0--------------|
D|------2--------2--------2--------2------------|
A|--3--------3--------3--------3----------------|
E|----------------------------------------------|

              you ain't never been be-...
e|-------------0---------------0----------------|
B|--------2--------0--------1-------------------|
G|----2-----------------2----------0------------|
D|------2--------2--------3------3--------------|
A|--0-------------------------------------------|
E|-----------0--------1-------------------------|

    -fore
e|-------------0------------0-------------------|
B|--------1-------------1-----------------------|
G|----0------------0-------------0--------------|
D|------2--------2--------2----------0----------|
A|--3--------3--------3--------3---2------------|
E|----------------------------------------------|

              No one left to watch your...
e|-------------0---------------0----------------|
B|--------2--------0--------1-------------------|
G|----2-----------------2----------0------------|
D|------2--------2--------3------3--------------|
A|--0-------------------------------------------|
E|-----------0--------1-------------------------|

    back now...
e|-------------0--------0-----------------------|
B|--------1-------------------------0-----------|
G|----0------------0--------0---0-0-------------|
D|------2--------2--------2---2-----------------|
A|--3--------3--------3-------------------------|
E|----------------------------------------------|

             No one standing at your door...
e|-----------0------------0---------------------|
B|--------1-------------------------------------|
G|----2----------0----2------2---0--------------|
D|------3------3--------3------3----------------|
A|----------------------------------------------|
E|--1---------------1---------------------------|


e|-----------0------------0---------------------|
B|--------1-----------1------1------------------|
G|----0----------0---------------0--------------|
D|------2------2--------2------2----------------|
A|--3---------------3---------------------------|
E|----------------------------------------------|

        That's what you thought love was...
e|--------0---------------0--------1------------|
B|----------------------------------------------|
G|----2------2---2----2--------2----------------|
D|------3------3--------3--------3--------------|
A|----------------------------------------------|
E|--1---------------1--------1------------------|

          for...
e|-----------0------------0---------------------|
B|--------1-----------1------1------------------|
G|----0----------0---------------0--------------|
D|------2------2--------2------2----------------|
A|--3-------------------------------------------|
E|------------------3---------------------------|


[Chorus/End]

             Baby, you're lost...
e|--------0----------------0--------------------|
B|------------------3---3-----------------------|
G|----2------2--------0-------0-----------------|
D|------3------3--------------------------------|
A|----------------------------------------------|
E|--1-------------3-----------------------------|

             Baby, you're lost...
e|--------0----------------0--------------------|
B|-----------1------3---3-----------------------|
G|----2---------------0-------------------------|
D|------3------3-------------0------------------|
A|----------------------------------------------|
E|--1-------------3-----------------------------|

                  Baby, you're a lost...
e|-----------0------------0---------------------|
B|--------1-------------3-----------------------|
G|----2-------------4---------------------------|
D|------3------3------5-----5-------------------|
A|----------------------------------------------|
E|--1-------------3-----------------------------|

    cause...
e|-----------0------------3---------------------|
B|--------1-----------2------2------------------|
G|----0----------0---------------0--------------|
D|------2------2--------2------2----------------|
A|--3---------------0---------------------------|
E|----------------------------------------------|

          I'm tired of fighting...
e|-----------0-------------0--------------------|
B|--------1-------------3-----------------------|
G|----2-------------4---------------------------|
D|------3------3------5------5------------------|
A|----------------------------------------------|
E|--1-------------3-----------------------------|

            I'm tired of fighting...
e|---------------------------0------------------|
B|--------1---------------3---------------------|
G|----2--------2------4-------------------------|
D|------3--------3------5------5----------------|
A|----------------------------------------------|
E|--1--------1------3---------------------------|

                   Fighting for a lost...
e|-----------0-------------0--------------------|
B|--------1-------------3-----------------------|
G|----2-------------4---------------------------|
D|------3------3------5------5------------------|
A|----------------------------------------------|
E|--1-------------3-----------------------------|

    cause...
e|-------------0--------------------------------|
B|--------1--3---1-----------1------------------|
G|----0---------------0---2---------------------|
D|------2---------------2------0h2--------------|
A|--3---------------3---------------------------|
E|----------------------------------------------|


[END]

e|--------0-------------------------------------|
B|----1-----------------------------------------|
G|------0----0----------------------------------|
D|-------------3--------------------------------|
A|--3-------------3-----------------------------|
E|----------------------------------------------|



************************************

| h  Hammer-on

************************************
Suggest correction
What's this?
You can suggest a correction to this tab. Community and Mods will review your correction and vote to approve or reject it.
comments
print report bad tab
1 comment total.
+1 reply
ntness 12 wrote on August 21 2011, 02:17 am

A worthy rendition of a soothing piece. Thanks for sharing.

guest
You may want to rate the tab now too:
select rating
Please do not post tabs as comments. Select "correction" instead!