Oops, an error
Loading. Please wait.

Nausea bass

by Beck
2,523 views 1 this week
1 commentread comment
1 2 3 4 5
x 4
add to favorites
×
Save as Personal and add changes to this tab that will be seen only by you. Learn more ›
×
You can save this tab as Personal to edit and correct it or add notes. All changes will be seen only by you. Learn more »
launch autoscroll
font size
0
reset
guitar tuner
edit
Autoscroll
slow
fast
+/-
esc
set tempo
stop
Author
Difficulty
Main line

G--------------------------------|
D-----4-------4------4-------4---|
A-6-6---6-6-6----6-6---6-6-6-----|
E--------------------------------|

Chorus
G-------------------------------------------|
D----------------------3--3-3--3--3-3-3-3-3-|
A-4--4-4--4--4-4-4-4-4----------------------|
E-------------------------------------------|

Outro =

mainline x4

Chorus x1

Mainline x1

Chorus x1

main x1

            
            
Suggest correction
Creating personal tab
Creating personal tab
You can edit any tab online and save it as your Personal.

You can edit, replace or remove any tab part or add personal notes – all changes will be seen only by you.

Personal tabs can be accessed anytime from any device, even offline.
Learn more »
comments
print report bad tab
1 comment total.
0 reply
nycbobo 52 Dec 20, 2006 12:18 PM

I don't think this is entirely correct... check out

http://www.youtube.com/watch?v=_ulnCXYyh9k

see if you can make some corrections

guest
You may want to rate the tab now too:
select rating
Wanna post a correction for this tab? Suggest correction