Oops, an error
Loading. Please wait.

Elegy tab

version 2
version 2

Whole song

Interactive

1,814 views 1 this week
no commentswrite comment
1 2 3 4 5
3 more votes to show rating
add to favorites
×
Save as Personal and add changes to this tab that will be seen only by you. Learn more ›
×
You can save this tab as Personal to edit and correct it or add notes. All changes will be seen only by you. Learn more »
launch autoscroll
font size
0
reset
how to read this tab
guitar tuner
edit
Autoscroll
slow
fast
+/-
esc
set tempo
stop
Tabbed By: Seth Mansfield

Intro  *Dist.*
D|-------------------------------------------------------------|
A|-------------------------------------------------------------|
F|-------------------------------------------------------------|
C|-------------------------------------------------------------|
G|--5-5-5--7-7-7--8-8-8--10-10-10------------------------------|
C|-------------------------------------------------------------|

D|------------------------------------------------------------------|
A|------------------------------------------------------------------|
F|------------------------------------------------------------------|
C|--777777777777-888888--777777-------------------------------------|     x2
G|--555555555555-888888--777777-------------------------------------|
C|-----------------------888888--777777-----------------------------|


D|------------------------------------------------------------------|
A|------------------------------------------------------------------|
F|------------------------------------------------------------------|
C|--777777777777-888888--777777-------------------------------------|     x2
G|--555555555555-888888--777777-------------------------------------|
C|-----------------------888888--777777-----------------------------|
........................................................

D|------------------------------------------------------------------|
A|------------------------------------------------------------------|
F|------------------------------------------------------------------|
C|--777777777777-888888--777777-------------------------------------|     x2
G|--555555555555-888888--777777-------------------------------------|
C|-----------------------888888--777777-----------------------------|

Cleeeeeeeeeeeeeeeeeaaaaaaaaaaaaaaannnnnnnnnnnnnnnn

D|--------------------------------------------------------------------------|
A|--------------------------------------------------------------------------|
F|--------------------------------------------------------------------------|
C|--14-14-14-14-14-14--10-10-10-10-10-10--14-14-14-14-14-14-----------------|
G|--12-12-12-12-12-12--8--8--8--8--8--8----12-12-12-12-12-12----------------|
C|--12-12-12-12-12-12--8--8--8--8--8--8----12-12-12-12-12-12----------------|


D|------------------------------------------------------------------------|
A|------------------------------------------------------------------------|
F|------------------------------------------------------------------------|
C|--8---------3---3-------------------------------------------------------|
G|--8---------3---3-------------------------------------------------------|
C|--8---------3---3-------------------------------------------------------|


Verse 1

D|-----------------------------------------------------------------|
A|-----------------------------------------------------------------|
F|-----------------------------------------------------------------|
C|---------5h7----3/2-------------------5h7--------8-8-------------|
G|------------------------5p3h5------------------------------------|
C|--000---------------------------000-----------0------------------|
............                              ......             ..

Gtr. 1
D|---------------------------------------|
A|---------------------------------------|
F|---------------------------------------|
C|----5h7---3/2-------------10--8--------|
G|-----------------5p3h5----10--8--------|
C|-0-0-0----------------------10--8------|

Gtr. 2

D|-------------------------------------------------------|
A|-------------------------------------------------------|
F|-------------------------------------------------------|
C|----5h7---3/2------------------5h7-----8-10------------|
G|------------------5p3h5--------------------------------|
C|-000----------------------000--------0-----------------|
............                      .......       ..


D|-----------------------------------------------------------------|
A|-----------------------------------------------------------------|
F|-----------------------------------------------------------------|
C|---------5h7----3/2-------------------5h7--------8-8-------------|
G|------------------------5p3h5------------------------------------|
C|--000---------------------------000-----------0------------------|
............                              ......             ..


D|-------------------------------------------------------|
A|-------------------------------------------------------|
F|-------------------------------------------------------|
C|----5h7---3/2------------------5h7-----8-10------------|
G|------------------5p3h5--------------------------------|
C|-000----------------------000--------0-----------------|
............                      .......       ..


D|-----------------------------------------------------------------|
A|-----------------------------------------------------------------|
F|-----------------------------------------------------------------|
C|---------5h7----3/2-------------------5h7--------8-8-------------|
G|------------------------5p3h5------------------------------------|
C|--000---------------------------000-----------0------------------|
............                              ......             ..

D|----------------------------------------------------------|
A|----------------------------------------------------------|
F|----------------------------------------------------------|
C|---------5h7---3/2-----------------5h7-----12-14v---------|
G|---------------------5p3h5--------------------------------|
C|-000--------------------------000--------0----------------|
...........                            ........        ...

Verse Interlude

D|-------------------------------------------------------------------------|
A|-------------------------------------------------------------------------|
F|-------------------------------------------------------------------------|
C|--------10-------15---14----10---10-10-10-10--9---9-9-9-9----------------|
G|--------8--------13---12----8-----8--8--8--8---7---7-7-7-7---------------|
C|-000-------00------------------------------------------------------------|
...........       .....

D|-------------------------------------------------------------------|
A|-------------------------------------------------------------------|
F|-------------------------------------------------------------------|
C|-------10------15---14--10---10-10-10-10----8---8-8-8-8------------|
G|-------8-------13---12--10---10-10-10-10----8---8-8-8-8------------|
C|000-----00-------------10---10-10-10-10----8---8-8-8-8-------------|
.........      ....


D|-------------------------------------------------------------------------|
A|-------------------------------------------------------------------------|
F|-------------------------------------------------------------------------|
C|--------10-------15---14----10---10-10-10-10--9---9-9-9-9----------------|
G|--------8--------13---12----8-----8--8--8--8---7---7-7-7-7---------------|
C|-000-------00------------------------------------------------------------|
...........       .....


D|-------------------------------------------------------------------------|
A|-------------------------------------------------------------------------|
F|-------------------------------------------------------------------------|
C|-------10------15---14----5---5-5-5-5---7---7-7-7-7----------------------|
G|-------8-------13---12----3---3-3-3-3---5---5-5-5-5----------------------|
C|-000-----00--------------------------------------------------------------|
..........      ....


2nd Versish thing (Chorus hasn't passed but the interlude makes it the second one I guess?)
D|---------------------------------------------------------------------------|
A|---------------------------------------------------------------------------|
F|---------12h14---14/12---10p9h10---------12h14-----15-15b------------------|
C|---------------------------------------------------------------------------|
G|---------------------------------------------------------------------------|
C|--000-----------------------------------000----------0---------------------|
...........                                        ......           ...


D|-------------------------------------------------------------------------|
A|-------------------------------------------------------------------------|
F|---------12h14---14/12-----10p9h10-----------12h14---15-17v--------------|
C|-------------------------------------------------------------------------|
G|-------------------------------------------------------------------------|
C|--000---------------------------------------000--------------------------|
...........                                             ......


D|---------------------------------------------------------------------------|
A|---------------------------------------------------------------------------|
F|---------12h14---14/12---10p9h10---------12h14-----15-15b------------------|
C|---------------------------------------------------------------------------|
G|---------------------------------------------------------------------------|
C|--000-----------------------------------000----------0---------------------|
...........                                        ......           ...


D|-------------------------------------------------------------------------|
A|-------------------------------------------------------------------------|
F|---------12h14---14/12-----10p9h10-----------12h14---15-17v--------------|
C|-------------------------------------------------------------------------|
G|-------------------------------------------------------------------------|
C|--000---------------------------------------000--------------------------|
...........                                             ......

Verse Interlude

D|-------------------------------------------------|
A|-------------------------------------------------|
F|-------------------------------------------------|
C|--------10-------15---14----10--9----------------|
G|--------8--------13---12----8---7----------------|
C|-000-------00------------------------------------|
...........       .....

D|-------------------------------------------|
A|-------------------------------------------|
F|-------------------------------------------|
C|-------10------15---14--10-----8-----------|
G|-------8-------13---12--10-----8-----------|
C|000-----00-------------10-----8------------|
.........      ....

D|-------------------------------------------------|
A|-------------------------------------------------|
F|-------------------------------------------------|
C|--------10-------15---14----10--9----------------|
G|--------8--------13---12----8---7----------------|
C|-000-------00------------------------------------|
..........        ....

D|---------------------------------------------------|
A|---------------------------------------------------|
F|---------------------------------------------------|
C|-------10------15---14----5--7---------------------|
G|-------8-------13---12----3--5---------------------|
C|-000-----00----------------------------------------|
..........      ....

...One by one...marching...to the grave...

D|----------------------------------------------------------------------------------------|
A|----------------------------------------------------------------------------------------|
F|----------------------------------------------------------------------------------------|
C|----------------------------------------------------------------------------------------|
G|-0-0-0-0-0-0--8-8-8-8-8-8--0-0-0-0-0-0--10-10-10-10-10-10--0-0-0-0-0-0--8-8-8-8-8-8--7--|
C|-0-0-0-0-0-0--8-8-8-8-8-8--0-0-0-0-0-0--10-10-10-10-10-10--0-0-0-0-0-0--8-8-8-8-8-8--7--|
......................                     .................                             ..................

D|------------------------------------------------------------------------|
A|------------------------------------------------------------------------|
F|------------------------------------------------------------------------|
C|--------7-8-------7-9-8-7-------7-8--------7-9-8-7-------7-8------------|
G|--5-8-------5-8------------5-8--------5-8-------------5-8---------------|
C|------------------------------------------------------------------------|

D|--------------------------------------------------|
A|--------------------------------------------------|
F|--------------------------------------------------|
C|-----------------7-8--------------7-8-9-8---------|
G|-----------5-8--------------5-8-------------------|
C|--00-00--------------00---------------------------|
...............               .....


D|----------------------------------------------------------------|
A|----------------------------------------------------------------|
F|----------------------------------------------------------------|
C|----------------7-8------7-9-8-7------------7-8-9-8-------------|
G|----------5-8-------5-------------------5-8---------------------|
C|00-00------------------------------00---------------------------|

D|-----------------------------------------------------------------------------------------------------|x
A|-----------------------------------------------------------------------------------------------------|x
F|-----------------------------------------------------------------------------------------------------|x
C|-12-12-12-12-12-12-12-12-11-11-11-11-11-11-11-11-7-7-7-7-7-7-7-7-8-8-8-8-8-8-8-8---------------------|x
G|-----------------------------------------------------------------------------------------------------|x
C|-----------------------------------------------------------------------------------------------------|x


D|---------------------------------------------------------------------------------------|x
A|---------------------------------------------------------------------------------------|x
F|---------------------------------------------------------------------------------------|x
C|-3-3-3-3-3-3-3-3-2-2-2-2-2-2-2-2-0-0-0-0-0-0-0-0-0-0-0-0-0-0-0-0-----------------------|x
G|---------------------------------------------------------------------------------------|x
C|---------------------------------------------------------------------------------------|x
Repeat both of those measures in order two times


D|--------------------------------------------------------------------------|
A|--------------------------------------------------------------------------|
F|-10-10-10-10-10-10-10-10-9-9-9-9-9-9-9-9-6-6-6-6-6-6-6-6-7-7-7-7-7-7-7-7--|
C|--------------------------------------------------------------------------|
G|--------------------------------------------------------------------------|
C|--------------------------------------------------------------------------|


D|-----------------------------------------------------------------------------------|
A|-----------------------------------------------------------------------------------|
F|-3-3-3-3-3-3-3-3-6-6-6-6-6-6-6-6-7-7-7-7-7-7-7-7-----------------------------------|
C|-----------------------------------------------------------------------------------|
G|-----------------------------------------------------------------------------------|
C|-----------------------------------------------------------------------------------|
Repeat both of those measures in order two times


Gtr. 1
D|-------------------------------------|
A|-------------------------------------|
F|-------------------------------------|
C|-0----3---2-2--5-5--3-3--2-2--8-7-3--|
G|-0----3---2-2--5-5--3-3--2-2--8-7-3--|
C|-0----3---2-2--5-5--3-3--2-2--8-7-3--|


Gtr. 2
D|------------------------------------------|
A|------------------------------------------|
F|--------------------------------10--9-----|
C|-9---12-----10--13--12--9-------------11--|
G|------------------------------------------|
C|------------------------------------------|

Gtr. 1
D|-------------------------------------------|
A|-------------------------------------------|
F|-------------------------------------------|
C|-5----8---5-5--8-8--7-7--5-5--8-7--10--12--|
G|-5----8---5-5--8-8--7-7--5-5--8-7--10--12--|
C|-5----8---5-5--8-8--7-7--5-5--8-7--10--12--|


Gtr. 2
D|------------------------------------------------------------------------------|
A|------------------------------------------------------------------------------|
F|-----------------------------11-10--12-14-------------------------------------|
C|--12---15--13-16-15-12--------------------------------------------------------|
G|------------------------------------------------------------------------------|
C|------------------------------------------------------------------------------|

...And they will cry...
Gtr. 1 Palm mute
D|-------------------------------------|
A|-------------------------------------|
F|-------------------------------------|
C|-0----3---2-2--5-5--3-3--2-2--8-7-3--|
G|-0----3---2-2--5-5--3-3--2-2--8-7-3--|
C|-0----3---2-2--5-5--3-3--2-2--8-7-3--|
......................................................

Gtr. 2.
D|-------------------------------------------|
A|-------------------------------------------|
F|-------------------------------------------|
C|-0----3---2-2--5-5--3-3--2-2--10--9--------|
G|-0----3---2-2--5-5--3-3--2-2-----------11--|
C|-0----3---2-2--5-5--3-3--2-2---------------|
...........................................


...There is no life here only death...
Gtr. 1.  Palm Mute
D|-------------------------------------------|
A|-------------------------------------------|
F|-------------------------------------------|
C|-0----7---5-5--8-8--7-7--5-5--8-7--10--12--|
G|-0----7---5-5--8-8--7-7--5-5--8-7--10--12--|
C|-0----7---5-5--8-8--7-7--5-5--8-7--10--12--|
.............................................................


Gtr. 2
D|-----------------------------------------------------|
A|-----------------------------------------------------|
F|--------------------------------------11--9--12--14--|
C|-0----7---5-5--8-8--7-7--5-5-------------------------|
G|-0----7---5-5--8-8--7-7--5-5-------------------------|
C|-0----7---5-5--8-8--7-7--5-5-------------------------|
...........................................


Palm Mute All open notes on Low C
D|-----------------------------------------------------------------------------------|
A|-----------------------------------------------------------------------------------|
F|-----------------------------------------------------------------------------------|
C|---12-11-----7-8------3-2------3--5------------------------------------------------|
G|-----------------------------------------------------------------------------------|
C|-0--------0-------0----------0-----------------------------------------------------|


D|-----------------------------------------------------------------------------------|
A|-----------------------------------------------------------------------------------|
F|-----------------------------------------------------------------------------------|
C|---12-11-----7-8------3-2------5t-------------------7t-----------------------------|
G|-----------------------------------------------------------------------------------|
C|-0--------0-------0----------0-----------------------------------------------------|
Play both measures in order two times


D|-----------------------------------------------------------------------------------|
A|-----------------------------------------------------------------------------------|
F|-----10-9---6-7-----3-2---------3-------------------5------------------------------|
C|-----------------------------------------------------------------------------------|
G|-----------------------------------------------------------------------------------|
C|-0--------0-------0----------0-----------------------------------------------------|


D|-----------------------------------------------------------------------------------|
A|-----------------------------------------------------------------------------------|
F|-----10-9---6-7-----3-2---------5t-------------------7t----------------------------|
C|-----------------------------------------------------------------------------------|
G|-----------------------------------------------------------------------------------|
C|-0--------0-------0----------0-----------------------------------------------------|

C|-0--2--3-------------------|
G|-0--2--3-------------------|
C|-0--2--3-------------------|

D|-----------------------------------------------------------------------------------|
A|-----------------------------------------------------------------------------------|
F|-----------------------------------------------------------------------------------|
C|---12-11-----7-8------3-2------3--5------------------------------------------------|
G|-----------------------------------------------------------------------------------|
C|-0--------0-------0----------0-----------------------------------------------------|


D|-----------------------------------------------------------------------------------|
A|-----------------------------------------------------------------------------------|
F|-----------------------------------------------------------------------------------|
C|---12-11-----7-8------3-2------5t-------------------7t-----------------------------|
G|-----------------------------------------------------------------------------------|
C|-0--------0-------0----------0-----------------------------------------------------|

D|-----------------------------------------------------------------------------------|
A|-----------------------------------------------------------------------------------|
F|-----------------------------------------------------------------------------------|
C|---12-11-----7-8------3-2------3--5------------------------------------------------|
G|-----------------------------------------------------------------------------------|
C|-0--------0-------0----------0-----------------------------------------------------|


D|------------------------------------------------------------------------------|
A|------------------------------------------------------------------------------|
F|------------------------------------------------------------------------------|
C|---12-11-----7-8------3-2----------3-3-3-3-3-3-3-3-3-3--5-5-5-5-5-5-5-5-5-----|
G|--------------------------------------3-3-3-3-3-3-3-3-3-3--5-5-5-5-5-5-5-5-5--|
C|-0--------0-------0----------0------3-3-3-3-3-3-3-3-3-3--5-5-5-5-5-5-5-5-5----|


...Wide is the path that leads to destruction...

D|---------------------------------------------------------|
A|---------------------------------------------------------|
F|---------------------------------------------------------|
C|-0---0-0-0-0--0-0-0-0---0-0-0-2-2-2-3-3-3----------------|
G|-0---0-0-0-0--0-0-0-0------------------------------------|
C|-0---0-0-0-0--0-0-0-0------------------------------------|
Repeat 4 times.

D|------------------------------------------------------------------------------|
A|------------------------------------------------------------------------------|
F|------------------------------------------------------------------------------|
C|-0---0-0-0-0--0-0-0-2---2-2-2-2--2-2-2-3---3-3-3-3--3-3-3-5---5-5-5-5--5-5-5--|
G|-0---0-0-0-0--0-0-0-2---2-2-2-2--2-2-2-3---3-3-3-3--3-3-3-5---5-5-5-5--5-5-5--|
C|-0---0-0-0-0--0-0-0-2---2-2-2-2--2-2-2-3---3-3-3-3--3-3-3-5---5-5-5-5--5-5-5--|
Repeat that like 7 or 8 times


-------Repeat Intro-------


...5:30...
D|---------------------------------------------------------------------------------|
A|---------------------------------------------------------------------------------|
F|---------------------------------------------------------------------------------|
C|--7-------------------11---------------------7-----------------------------------|
G|-----------------------------------------------------------------------------11--|
C|---------------------------------------------------------------------------------|

....Piano Part....


....7:39....
D|----------------------------------------------------------------------------------------------------|
A|----------------------------------------------------------------------------------------------------|
F|-1/9-------8--9--8-------8---9-------14---13---------------8---------------9----8h9p9---------------|
C|--------------------------------------------------------8--9---------9---11---------------------11--|
G|----------------------------------------------------------------------------------------------------|
C|----------------------------------------------------------------------------------------------------|
Repeat 3 or 4 times

...More Piano...

....9:50....
Gtr. slides out from 12-1 on the high C string

I'm not 100% positive this is right because my speakers are crapping out and they sound 
on this part, but I think it's at least close.
Gtr. 1
Palm mute all
D|-----------------------------------------------|
A|-----------------------------------------------|
F|-----------------------------------------------|
C|-3-3-3-3-2-3-3-3--8-8-8-8-7-5-5-5--------------|
G|-3-3-3-3-2-3-3-3--8-8-8-8-7-5-5-5--------------|
C|-3-3-3-3-2-3-3-3--8-8-8-8-7-5-5-5--------------|
Repeat 7 or 8 times

Gtr. 2 comes in after that's played twice.

D|-----------------------------------------------|
A|-----------------------------------------------|
F|-----------------------------------------------|
C|--1/12---12---12--11-12---11-15----15---14-11--|
G|-----------------------------------------------|
C|-----------------------------------------------|
Repeat 5 or 6 times and instead of sliding in from the one play the 11 again.  Also, on 
second, fourth, and sixth time you play it, the last note is "17" on High C instead of "11".


D|-------------------------------------------------|
A|-------------------------------------------------|
F|-------------------------------------------------|
C|--------10-------15---14----10--9----------------|
G|--------8--------13---12----8---7----------------|
C|-000-------00------------------------------------|
...........       .....

D|-------------------------------------------|
A|-------------------------------------------|
F|-------------------------------------------|
C|-------10------15---14--10-----8-----------|
G|-------8-------13---12--10-----8-----------|
C|000-----00-------------10-----8------------|
.........      ....

D|-------------------------------------------------|
A|-------------------------------------------------|
F|-------------------------------------------------|
C|--------10-------15---14----10--9----------------|
G|--------8--------13---12----8---7----------------|
C|-000-------00------------------------------------|
..........        ....

D|---------------------------------------------------|
A|---------------------------------------------------|
F|---------------------------------------------------|
C|-------10------15---14----5--7---------------------|
G|-------8-------13---12----3--5---------------------|
C|-000-----00----------------------------------------|
..........      ....


D|---------------------------------------------------------------------------|
A|---------------------------------------------------------------------------|
F|---------12h14---14/12---10p9h10---------12h14-----15-15b------------------|
C|---------------------------------------------------------------------------|
G|---------------------------------------------------------------------------|
C|--000-----------------------------------000----------0---------------------|
...........                                        ......           ...


D|-------------------------------------------------------------------------|
A|-------------------------------------------------------------------------|
F|---------12h14---14/12-----10p9h10-----------12h14---15-17v--------------|
C|-------------------------------------------------------------------------|
G|-------------------------------------------------------------------------|
C|--000---------------------------------------000--------------------------|
...........                                             ......


D|---------------------------------------------------------------------------|
A|---------------------------------------------------------------------------|
F|---------12h14---14/12---10p9h10---------12h14-----15-15b------------------|
C|---------------------------------------------------------------------------|
G|---------------------------------------------------------------------------|
C|--000-----------------------------------000----------0---------------------|
...........                                        ......           ...


D|-------------------------------------------------------------------------|
A|-------------------------------------------------------------------------|
F|---------12h14---14/12-----10p9h10-----------12h14---15-17v--------------|
C|-------------------------------------------------------------------------|
G|-------------------------------------------------------------------------|
C|--000---------------------------------------000--------------------------|
...........                                             ......

D|-------------------------------------------------------------------------|
A|-------------------------------------------------------------------------|
F|-------------------------------------------------------------------------|
C|--------10-------15---14----10---10-10-10-10--9---9-9-9-9----------------|
G|--------8--------13---12----8-----8--8--8--8---7---7-7-7-7---------------|
C|-000-------00------------------------------------------------------------|
...........       .....

D|--------------------------------------------------------------------|
A|--------------------------------------------------------------------|
F|--------------------------------------------------------------------|
C|-------10------15---14---8---8-8-8-8-----10---10-10-10-10-----------|
G|-------8-------13---12---8---8-8-8-8-----10---10-10-10-10-----------|
C|000-----00--------------8---8-8-8-8-----10---10-10-10-10------------|
.........      ....


D|-------------------------------------------------------------------------|
A|-------------------------------------------------------------------------|
F|-------------------------------------------------------------------------|
C|--------10-------15---14----10---10-10-10-10--9---9-9-9-9----------------|
G|--------8--------13---12----8-----8--8--8--8---7---7-7-7-7---------------|
C|-000-------00------------------------------------------------------------|
...........       .....


D|-------------------------------------------------------------------------|
A|-------------------------------------------------------------------------|
F|-------------------------------------------------------------------------|
C|-------10------15---14----5---5-5-5-5---7---7-7-7-7----------------------|
G|-------8-------13---12----3---3-3-3-3---5---5-5-5-5----------------------|
C|-000-----00--------------------------------------------------------------|
..........      ....


Becoming The Archetype is an AMAZING band buy their album now!!!!

/ - Slide
Dist. - Distortion
Clean - No Distortion
..... - Palm Mute
V - Vibrato
...Lyrics...
P - Pull-off
h - Hammer on
b - Bend
...5:30... - Time In Song
T - Tremolo Picking
Suggest correction
Creating personal tab
Creating personal tab
You can edit any tab online and save it as your Personal.

You can edit, replace or remove any tab part or add personal notes – all changes will be seen only by you.

Personal tabs can be accessed anytime from any device, even offline.
Learn more »
Give kudos to tab author, rate the tab!
1 2 3 4 5
comments
print report bad tab
guest
Wanna post a correction for this tab? Suggest correction