Oops, an error
Loading. Please wait.

Elegy tab

version 4
version 4

Whole song

Interactive

3,936 views 1 this week
10 commentsread comments
1 2 3 4 5
x 7
add to favorites
×
Save as Personal and add changes to this tab that will be seen only by you. Learn more ›
×
You can save this tab as Personal to edit and correct it or add notes. All changes will be seen only by you. Learn more »
launch autoscroll
font size
0
reset
how to read this tab
guitar tuner
edit
Autoscroll
slow
fast
+/-
esc
set tempo
stop
Becoming The Archetype: Elegy
From: Terminate Damnation
Copyright © 2005 Solid State Records
Drop C Tuning C-G-C-F-A-D

palm mute=...etc
h=hammer on
p=pull off
~=let it ring
s=slide

Intro
Gtr. 1
D[---------------------]
A[---------------------]
F[---7---9---10--12----]
C[--7---8---9---12-----]
G[-5---7---8---10------]
C[---------------------]

Gtr. 2
D[---------------0----]
A[---------------0----]
F[---7---9---10--0----]
C[--7---8---9---------]
G[-5---7---8----------]
C[--------------------]
Then
D[---------------]
A[-3-------------]
F[-2----10--9----]
C[-0-----8--7----]
G[-0-----8--7----]x2
C[-0-----8--7----]
Then
D[--------------]
A[--------------]
F[--------------]
C[-0----8--7----]
G[-0----8--7----]x2
C[-0----8--7----]
    ............
Then
D[---------------]
A[-3-------------]
F[-2----10--9----]
C[-0-----8--7----]
G[-0-----8--7----]x2
C[-0-----8--7----]
Then
Gtr. 2
D[-------------------]
A[-------------------]
F[-------------------]
C[-14----10----14----]
G[-12-----8----12----]
C[-12-----8----12----]
Then
Gtr. 1
D[------------]
A[------------]
F[------------]
C[-8---3-3----]
G[-8---3-3----]
C[-8---3-3----]
Then
D[----------------------------------------------]
A[----------------------------------------------]
F[----------------------------------------------]
C[-0/0/0-5h7-x-----x-------0/0/0-5h7-x-8~-8~----]
G[-0/0/0-----x-8p7-x-5p3/5-0/0/0-----x----------]
C[-0/0/0-----x-----x-------0/0/0-----x----------]
   .....                   .....

D[----------------------------------------]
A[----------------------------------------]
F[----------------------------------------]
C[-0/0/0-5h7-x-----x-------10----8--10----]
G[-0/0/0-----x-8p7-x-5p3/5-10----8---8----]
C[-0/0/0-----x-----x-------10----8---8----]
   .....                    

Verse 1
Gtr. 1
D[----------------------------------------------]
A[----------------------------------------------]
F[----------------------------------------------]
C[-0/0/0-5h7-x-----x-------0/0/0-5h7-x-8~-8~----]
G[-0/0/0-----x-8p7-x-5p3/5-0/0/0-----x----------]
C[-0/0/0-----x-----x-------0/0/0-----x----------]
   .....                   .....

Then
Gtr. 1
D[-----------------------------------------------]
A[-----------------------------------------------]
F[-----------------------------------------------]
C[-0/0/0-5h7-x-----x-------0/0/0-5h7-x-8~-10~----]
G[-0/0/0-----x-8p7-x-5p3/5-0/0/0-----x-----------]
C[-0/0/0-----x-----x-------0/0/0-----x-----------]
   .....                   .....

Gtr. 2
D[----------------------------]
A[----------------------------]
F[----------------------------]
C[-------5h7-x-7p5-x----------]
G[-----------x-----x-8p7/8----]
C[-----------x-----x----------]

Then
Gtr. 1
D[----------------------------------------------]
A[----------------------------------------------]
F[----------------------------------------------]
C[-0/0/0-5h7-x-----x-------0/0/0-5h7-x-8~-8~----]
G[-0/0/0-----x-8p7-x-5p3/5-0/0/0-----x----------]
C[-0/0/0-----x-----x-------0/0/0-----x----------]
   .....                   .....

Then
Gtr. 1
D[-----------------------------------------------]
A[-----------------------------------------------]
F[-----------------------------------------------]
C[-0/0/0-5h7-x-----x-------0/0/0-5h7-x-8~-10~----]
G[-0/0/0-----x-8p7-x-5p3/5-0/0/0-----x-----------]
C[-0/0/0-----x-----x-------0/0/0-----x-----------]
   .....                   .....

Gtr. 2
D[-----------------------------------------------]
A[-----------------------------------------------]
F[-------------------------------------7~--9~----]
C[-----------------------------------------------]
G[-----------------------------------------------]
C[-----------------------------------------------]

Then
Gtr. 1
D[----------------------------------------------------------------]
A[----------------------------------------------------------------]
F[----------------------------------------------------------------]
C[-0/0/0/3/0/0-8-7-5--3----2----0/0/0/3/0/0-8-7-5--10----8--10----]
G[-0/0/0/3/0/0-8-7-5--3----2----0/0/0/3/0/0-8-7-5--10----8---8----]
C[-0/0/0/3/0/0-8-7-5--3----2----0/0/0/3/0/0-8-7-5--10----8---8----]
     ...   ...                    ...   ...

D[-------------------------------------------------------------]
A[-------------------------------------------------------------]
F[-------------------------------------------------------------]
C[-0/0/0/3/0/0-8-7-5--3----2----0/0/0/3/0/0-8-7-5--10----12----]
G[-0/0/0/3/0/0-8-7-5--3----2----0/0/0/3/0/0-8-7-5--10----12----]
C[-0/0/0/3/0/0-8-7-5--3----2----0/0/0/3/0/0-8-7-5--10----12----]
     ...   ...                    ...   ...

Gtr. 2
D[-----------------------------------------------------------------]
A[-----------------------------------------------------------------]
F[-------------------10----12--------------------------------------]
C[-0/0/0/3/0/0-8-7-5--x-----x----0/0/0/3/0/0-8-7-5--10----8--10----]
G[-0/0/0/3/0/0-8-7-5--8----10----0/0/0/3/0/0-8-7-5--10----8---8----]
C[-0/0/0/3/0/0-8-7-5-------------0/0/0/3/0/0-8-7-5--10----8---8----]
     ...   ...                     ...   ...


D[--------------------------------------------------------------]
A[--------------------------------------------------------------]
F[-------------------10----12-----------------------------------]
C[-0/0/0/3/0/0-8-7-5--x-----x----0/0/0/3/0/0-8-7-5--10----12----]
G[-0/0/0/3/0/0-8-7-5--8----10----0/0/0/3/0/0-8-7-5--10----12----]
C[-0/0/0/3/0/0-8-7-5-------------0/0/0/3/0/0-8-7-5--10----12----]
     ...   ...                     ...   ...

Then
Gtr. 1
D[----------------------------------------------]
A[----------------------------------------------]
F[----------------------------------------------]
C[-0/0/0-5h7-x-----x-------0/0/0-5h7-x-8~-8~----]
G[-0/0/0-----x-8p7-x-5p3/5-0/0/0-----x----------]
C[-0/0/0-----x-----x-------0/0/0-----x----------]
   .....                   .....

D[-----------------------------------------------]
A[-----------------------------------------------]
F[-----------------------------------------------]
C[-0/0/0-5h7-x-----x-------0/0/0-5h7-x-8~-10~----]
G[-0/0/0-----x-8p7-x-5p3/5-0/0/0-----x-----------]
C[-0/0/0-----x-----x-------0/0/0-----x-----------]
   .....                   .....

D[----------------------------------------------]
A[----------------------------------------------]
F[----------------------------------------------]
C[-0/0/0-5h7-x-----x-------0/0/0-5h7-x-8~-8~----]
G[-0/0/0-----x-8p7-x-5p3/5-0/0/0-----x----------]
C[-0/0/0-----x-----x-------0/0/0-----x----------]
   .....                   .....

D[-----------------------------------------------]
A[-----------------------------------------------]
F[-----------------------------------------------]
C[-0/0/0-5h7-x-----x-------0/0/0-5h7-x-8~-10~----]
G[-0/0/0-----x-8p7-x-5p3/5-0/0/0-----x-----------]
C[-0/0/0-----x-----x-------0/0/0-----x-----------]
   .....                   .....

Gtr. 2
D[---------------------------------------------------]
A[-------8h10-x-10p8-x-6p5/6-------8h10-x-11~-11~----]
F[-7/7/7---------------------7/7/7-------------------]
C[---------------------------------------------------]
G[---------------------------------------------------]
C[---------------------------------------------------]

D[---------------------------------------------------]
A[-------8h10-x-10p8-x-6p5/6-------8h10-x-11~-13~----]
F[-7/7/7---------------------7/7/7-------------------]
C[---------------------------------------------------]
G[---------------------------------------------------]
C[---------------------------------------------------]

D[---------------------------------------------------]
A[-------8h10-x-10p8-x-6p5/6-------8h10-x-11~-11~----]
F[-7/7/7---------------------7/7/7-------------------]
C[---------------------------------------------------]
G[---------------------------------------------------]
C[---------------------------------------------------]

D[---------------------------------------------------]
A[-------8h10-x-10p8-x-6p5/6-------8h10-x-11~-13~----]
F[-7/7/7---------------------7/7/7-------------------]
C[---------------------------------------------------]
G[---------------------------------------------------]
C[---------------------------------------------------]


Then
Gtr. 1
D[----------------------------------------------------------------]
A[----------------------------------------------------------------]
F[----------------------------------------------------------------]
C[-0/0/0/3/0/0-8-7-5--3----2----0/0/0/3/0/0-8-7-5--10----8--10----]
G[-0/0/0/3/0/0-8-7-5--3----2----0/0/0/3/0/0-8-7-5--10----8---8----]
C[-0/0/0/3/0/0-8-7-5--3----2----0/0/0/3/0/0-8-7-5--10----8---8----]
     ...   ...                    ...   ...

D[-------------------------------------------------------------]
A[-------------------------------------------------------------]
F[-------------------------------------------------------------]
C[-0/0/0/3/0/0-8-7-5--3----2----0/0/0/3/0/0-8-7-5--10----12----]
G[-0/0/0/3/0/0-8-7-5--3----2----0/0/0/3/0/0-8-7-5--10----12----]
C[-0/0/0/3/0/0-8-7-5--3----2----0/0/0/3/0/0-8-7-5--10----12----]
     ...   ...                    ...   ...

Gtr. 2
D[-----------------------------------------------------------------]
A[-----------------------------------------------------------------]
F[-------------------10----12--------------------------------------]
C[-0/0/0/3/0/0-8-7-5--x-----x----0/0/0/3/0/0-8-7-5--10----8--10----]
G[-0/0/0/3/0/0-8-7-5--8----10----0/0/0/3/0/0-8-7-5--10----8---8----]
C[-0/0/0/3/0/0-8-7-5-------------0/0/0/3/0/0-8-7-5--10----8---8----]
     ...   ...                     ...   ...


D[--------------------------------------------------------------]
A[--------------------------------------------------------------]
F[-------------------10----12-----------------------------------]
C[-0/0/0/3/0/0-8-7-5--x-----x----0/0/0/3/0/0-8-7-5--10----12----]
G[-0/0/0/3/0/0-8-7-5--8----10----0/0/0/3/0/0-8-7-5--10----12----]
C[-0/0/0/3/0/0-8-7-5-------------0/0/0/3/0/0-8-7-5--10----12----]
     ...   ...                     ...   ...

Then
Gtr. 1
D[----------------------------------------------------------]
A[----------------------------------------------------------]
F[----------------------------------------------------------]
C[-0/0/0/0/0/0-8/8/8/8/8/8-0/0/0/0/0/0-10/10/10/10/10/10----]
G[-0/0/0/0/0/0-8/8/8/8/8/8-0/0/0/0/0/0-10/10/10/10/10/10----]
C[-0/0/0/0/0/0-8/8/8/8/8/8-0/0/0/0/0/0-10/10/10/10/10/10----]
   ...........             ...........

D[------------------------------]
A[------------------------------]
F[------------------------------]
C[-0/0/0/0/0/0-8/8/8/8/8/8-7----]
G[-0/0/0/0/0/0-8/8/8/8/8/8-7----]
C[-0/0/0/0/0/0-8/8/8/8/8/8-7----]
   ...........

Interlude
Gtr. 1
D[--------------------------------------------]
A[--------------------------------------------]
F[------3-------3---4-------3-------3---4-----]
C[-0/3/4---0/3/4-3/0-4/0/3/4---0/3/4-3/0-4----]
G[--------------------------------------------]
C[--------------------------------------------]

Then
Gtr. 2
D[------------------------------------------------------------]
A[------------------------------------------------------------]
F[------------------------------------------------------------]
C[-000-000--------000-------------000-000--------------000----]
G[-000-000--------000-------------000-000--------------000----]
C[-000-000--------000-------------000-000--------------000----]
   ... ...        ...             ... ...              ...

Gtr. 1
D[------------------------------------------------------------------------]
A[------------------------------------------------------------------------]
F[--------------3----------3-4--3--------------3----4-----------3-4--3----]
C[-000-000-0/3/4--000-0/3/4-------000-000-0/3/4--0/3-4-000-0/3/4----------]
G[------------------------------------------------------------------------]
C[------------------------------------------------------------------------]
   ... ...        ...             ... ...              ...


Then
D[------------------------]
A[------------------------]
F[-7--6--2--3-------------]
C[-x--x--x--x--3--2--0----]
G[-5--4--0--1--x--x--x----]x2
C[-------------3--2--0----]

Then
Gtr. 1
D[------------------------]
A[------------------------]
F[-7--6--2--3-------------]
C[-x--x--x--x--3--2--0----]
G[-5--4--0--1--x--x--x----]
C[-------------3--2--0----]

D[-------------------------]
A[-------------------------]
F[-------------------------]
C[-------------------------]
G[-5-8-7---7-10------------]
C[-------------------------]

Gtr. 2
D[-------------------------------------------------]
A[-------------------------------------------------]
F[-10--9--6--7--3--2--3----10--9--6--7--3--6--7----]
C[-------------------------------------------------]
G[-------------------------------------------------]
C[-------------------------------------------------]


Then
Gtr. 1
D[------------------------]
A[------------------------]
F[-7--6--2--3-------------]
C[-x--x--x--x--3--2--0----]
G[-5--4--0--1--x--x--x----]
C[-------------3--2--0----]

Then
Gtr. 1
D[-------------------------]
A[-------------------------]
F[-------------------------]
C[-------------------------]
G[-5-8-7---7-10------------]
C[-------------------------]

Gtr. 2
D[-------------------------]
A[-------------------------]
F[-10--9--6--7--3--6--7----]
C[-------------------------]
G[-------------------------]
C[-------------------------]

Then
Gtr. 1
D[------------------------]
A[------------------------]
F[-7--6--2--3-------------]
C[-x--x--x--x--3--2--0----]
G[-5--4--0--1--x--x--x----]x2
C[-------------3--2--0----]

Gtr. 2
D[------------------------------------------------9-10----]
A[--------------------------------------------11-8--------]
F[-7~~10~~9-12-10-9-10-9-6--7~~12~~10-14-12-10------------]
C[--------------------------------------------------------]
G[--------------------------------------------------------]
C[--------------------------------------------------------]

Gtr. 3
D[-------------------------------------------------------]
A[-------------------------------------------------------]
F[-------------------------------------------------------]
C[----------------------------------------------11-12----]
G[-5~~8~~7-10-8-7-8-7-4--5~~10~~8-12-10-8-13-10----------]
C[-------------------------------------------------------]


Then
Gtr. 1
D[-------------------------------------------------------------]
A[-------------------------------------------------------------]
F[-------------------------------------------------------------]
C[-0~~3~~2-5-3-2-3-2----------0~~5~~3-7-5-3--------------------]
G[-0~~3~~2-5-3-2-3-2-4/4/4/4--0~~5~~3-7-5-3---------4/4-5/5----]x2
C[-0~~3~~2-5-3-2-3-2----------0~~5~~3-7-5-3-8/8-5/5------------]
   .  .  .......              .  .  .......

Gtr. 2
D[-----------------------------------------------------------------]
A[-----------------------------------------------------------------]
F[------------------------------------------------------6/6-7/7----]
C[-0~~3~~2-5-3-2-8/8-7/7-4/4/4/4--0~~5~~3-7-5-3-8/8-5/5------------]
G[-0~~3~~2-5-3-2------------------0~~5~~3-7-5-3--------------------]x2
C[-0~~3~~2-5-3-2------------------0~~5~~3-7-5-3--------------------]
   .  .  .......                  .  .  .......

Interlude 2
Gtr. 2
D[-----------------------------------------]
A[-----------------------------------------]
F[-----------------------------------------]
C[-0--7--8--8---------0--7--8--8-----------]
G[-0--7--8--8---------0--7--8--8-----------]x6
C[-0--7--8--8-5/5-7/7-0--7--8--8-5----7----]

Gtr. 1
(play this fast)
D[----------------------------------------]
A[----------------------------------------]
F[--7/7/6/6-------------------------------]
C[-----------7/7/8/8-----------5-5-7-7----]
G[--------------------8/8/7/7-------------]
C[----------------------------------------]

D[---------------------------------------]
A[---------------------------------------]
F[--7/7/6/6------------------------------]
C[-----------7/7/8/8-----------5----7----]
G[--------------------8/8/7/7------------]
C[---------------------------------------]
(Play both riffs 6 times respectively)

Then
Gtr. 2
D[------------]
A[------------]
F[-7----------]
C[-7--7--8----]
G[-5--7--8----]
C[----7--8----]

Then
Gtr. 2
D[-----------------------------------------]
A[-----------------------------------------]
F[-----------------------------------------]
C[-0--7--8--8---------0--7--8--8-5----7----]
G[-0--7--8--8---------0--7--8--8-5----7----]x2
C[-0--7--8--8-5/5-7/7-0--7--8--8-5----7----]

Gtr. 1
(play this fast)
D[----------------------------------------]
A[----------------------------------------]
F[--7/7/6/6-------------------------------]
C[-----------7/7/8/8-----------5-5-7-7----]
G[--------------------8/8/7/7-------------]
C[----------------------------------------]

D[---------------------------------------]
A[---------------------------------------]
F[--7/7/6/6------------------------------]
C[-----------7/7/8/8-----------5----7----]
G[--------------------8/8/7/7------------]
C[---------------------------------------]
(Play both riffs 2 times respectively)

Interlude 3
D[-----------------------------------------]
A[-----------------------------------------]
F[-7--7/7/7/7-7/7/7/7-7/7/7----------------]
C[-7--7/7/7/7-7/7/7/7-7/7/7----------------]
G[-5--5/5/5/5-5/5/5/5-5/5/5-7/7/7-8/8/8----]x4
C[-----------------------------------------]

Then
D[------------------------------------------]
A[-3----5----6----8----3----5----6----------]
F[-2----4----5----7----2----4----5----12----]
C[-0----2----3----5----0----2----3----10----]
G[-0----2----3----5----0----2----3----10----]x2
C[-0----2----3----5----0----2----3----10----]

Then
Gtr. 1
D[---------------------]
A[---------------------]
F[---7---9---10--12----]
C[--7---8---9---12-----]
G[-5---7---8---10------]x2
C[---------------------]

Gtr. 2
D[---------------0----]
A[---------------0----]
F[---7---9---10--0----]
C[--7---8---9---------]
G[-5---7---8----------]x2
C[--------------------]

Then
D[---------------]
A[-3-------------]
F[-2----10--9----]
C[-0-----8--7----]
G[-0-----8--7----]
C[-0-----8--7----]

Then
Gtr. 1
D[---------------------]
A[---------------------]
F[---7---9---10--12----]
C[--7---8---9---12-----]
G[-5---7---8---10------]x2
C[---------------------]

Gtr. 2
D[---------------0----]
A[---------------0----]
F[---7---9---10--0----]
C[--7---8---9---------]
G[-5---7---8----------]x2
C[--------------------]

Then
D[---------------]
A[-3-------------]
F[-2----10--9----]
C[-0-----8--7----]
G[-0-----8--7----]x4
C[-0-----8--7----]

Then
Gtr. 1
D[-----------------------------]
A[-----------------------------]
F[-----------------------------]
C[-----------------------------]
G[-10~~~~13~~~~10~~~~12~~~~----]
C[-----------------------------]

Gtr. 2
D[---------------------------]
A[---------------------------]
F[---------------------------]
C[-8~~~~12~~~~8~~~~11~~~~----]
G[---------------------------]
C[---------------------------]

Then 
Piano for a long time (like 2 minutes)
Then
Gtr. 1
D[-----------------------------------1------0--1p0-------------]
A[-3s10~~~5h6-5~~~5/6~~11~~10------1------2-------3~~----------]
F[-------------------------------2------2----------------------]
C[----------------------------------------------------0~~~~----]
G[-------------------------------------------------------------]x3(?)
C[-------------------------------------------------------------]

                                                            strum backwards 
D[-----------------------------------1------0--1p0----------^--------]
A[-3s10~~~5h6-5~~~5/6~~11~~10------1------2-------3~~-------3--------]
F[-------------------------------2------2-------------------2--------]
C[----------------------------------------------------0~~~~-0--------]
G[----------------------------------------------------------0--------]
C[----------------------------------------------------------0--------]

Then piano for awhile again 
then...(this is like 9 minutes and some into the song)
Gtr. 2
D[------------------------------------]
A[------------------------------------]
F[------------------------------------]
C[-0----8--3----2--0----8--3----10----]
G[-0----8--3----2--0----8--3----10----]x2
C[-0----8--3----2--0----8--3----10----]
   ...................................

Then
Gtr. 2
D[------------------------------------]
A[------------------------------------]
F[------------------------------------]
C[-0----8--3----2--0----8--3----10----]
G[-0----8--3----2--0----8--3----10----]
C[-0----8--3----2--0----8--3----10----]
   ...................................

Gtr. 1
D[---------------------------------------------------------]
A[---------------------------------------------------------]
F[-7-7--6-7--7-10-10--9-6--6-7-7--6-7--7-10-10--9-12-12----]
C[---------------------------------------------------------]
G[---------------------------------------------------------]
C[---------------------------------------------------------]

Then
Gtr. 2
D[------------------------------------]
A[------------------------------------]
F[------------------------------------]
C[-0----8--3----2--0----8--3----10----]
G[-0----8--3----2--0----8--3----10----]
C[-0----8--3----2--0----8--3----10----]
   ...................................

Gtr. 1
D[---------------------------------------------------------]
A[---------------------------------------------------------]
F[-7-7--6-7--7-10-10--9-6--6-7-7--6-7--7-10-10--9-12-12----]
C[---------------------------------------------------------]
G[---------------------------------------------------------]
C[---------------------------------------------------------]

Gtr. 3
D[-------------------------------------------------------------------]
A[-------------------------------------------------------------------]
F[-10-10--9-10--10-14-14--12-9--9-10-10--9-10--10-14-14--12-17-17----]
C[-------------------------------------------------------------------]
G[-------------------------------------------------------------------]
C[-------------------------------------------------------------------]

Then
Gtr. 1
D[----------------------------------------------------------------]
A[----------------------------------------------------------------]
F[----------------------------------------------------------------]
C[-0/0/0/3/0/0-8-7-5--3----2----0/0/0/3/0/0-8-7-5--10----8--10----]
G[-0/0/0/3/0/0-8-7-5--3----2----0/0/0/3/0/0-8-7-5--10----8---8----]
C[-0/0/0/3/0/0-8-7-5--3----2----0/0/0/3/0/0-8-7-5--10----8---8----]
     ...   ...                    ...   ...

D[-------------------------------------------------------------]
A[-------------------------------------------------------------]
F[-------------------------------------------------------------]
C[-0/0/0/3/0/0-8-7-5--3----2----0/0/0/3/0/0-8-7-5--10----12----]
G[-0/0/0/3/0/0-8-7-5--3----2----0/0/0/3/0/0-8-7-5--10----12----]
C[-0/0/0/3/0/0-8-7-5--3----2----0/0/0/3/0/0-8-7-5--10----12----]
     ...   ...                    ...   ...

Gtr. 2
D[-----------------------------------------------------------------]
A[-----------------------------------------------------------------]
F[-------------------10----12--------------------------------------]
C[-0/0/0/3/0/0-8-7-5--x-----x----0/0/0/3/0/0-8-7-5--10----8--10----]
G[-0/0/0/3/0/0-8-7-5--8----10----0/0/0/3/0/0-8-7-5--10----8---8----]
C[-0/0/0/3/0/0-8-7-5-------------0/0/0/3/0/0-8-7-5--10----8---8----]
     ...   ...                     ...   ...


D[--------------------------------------------------------------]
A[--------------------------------------------------------------]
F[-------------------10----12-----------------------------------]
C[-0/0/0/3/0/0-8-7-5--x-----x----0/0/0/3/0/0-8-7-5--10----12----]
G[-0/0/0/3/0/0-8-7-5--8----10----0/0/0/3/0/0-8-7-5--10----12----]
C[-0/0/0/3/0/0-8-7-5-------------0/0/0/3/0/0-8-7-5--10----12----]
     ...   ...                     ...   ...

Then
Gtr. 1
D[----------------------------------------------]
A[----------------------------------------------]
F[----------------------------------------------]
C[-0/0/0-5h7-x-----x-------0/0/0-5h7-x-8~-8~----]
G[-0/0/0-----x-8p7-x-5p3/5-0/0/0-----x----------]
C[-0/0/0-----x-----x-------0/0/0-----x----------]
   .....                   .....

D[-----------------------------------------------]
A[-----------------------------------------------]
F[-----------------------------------------------]
C[-0/0/0-5h7-x-----x-------0/0/0-5h7-x-8~-10~----]
G[-0/0/0-----x-8p7-x-5p3/5-0/0/0-----x-----------]
C[-0/0/0-----x-----x-------0/0/0-----x-----------]
   .....                   .....

D[----------------------------------------------]
A[----------------------------------------------]
F[----------------------------------------------]
C[-0/0/0-5h7-x-----x-------0/0/0-5h7-x-8~-8~----]
G[-0/0/0-----x-8p7-x-5p3/5-0/0/0-----x----------]
C[-0/0/0-----x-----x-------0/0/0-----x----------]
   .....                   .....

D[-----------------------------------------------]
A[-----------------------------------------------]
F[-----------------------------------------------]
C[-0/0/0-5h7-x-----x-------0/0/0-5h7-x-8~-10~----]
G[-0/0/0-----x-8p7-x-5p3/5-0/0/0-----x-----------]
C[-0/0/0-----x-----x-------0/0/0-----x-----------]
   .....                   .....

Gtr. 2
D[---------------------------------------------------]
A[-------8h10-x-10p8-x-6p5/6-------8h10-x-11~-11~----]
F[-7/7/7---------------------7/7/7-------------------]
C[---------------------------------------------------]
G[---------------------------------------------------]
C[---------------------------------------------------]

D[---------------------------------------------------]
A[-------8h10-x-10p8-x-6p5/6-------8h10-x-11~-13~----]
F[-7/7/7---------------------7/7/7-------------------]
C[---------------------------------------------------]
G[---------------------------------------------------]
C[---------------------------------------------------]

D[---------------------------------------------------]
A[-------8h10-x-10p8-x-6p5/6-------8h10-x-11~-11~----]
F[-7/7/7---------------------7/7/7-------------------]
C[---------------------------------------------------]
G[---------------------------------------------------]
C[---------------------------------------------------]

D[---------------------------------------------------]
A[-------8h10-x-10p8-x-6p5/6-------8h10-x-11~-13~----]
F[-7/7/7---------------------7/7/7-------------------]
C[---------------------------------------------------]
G[---------------------------------------------------]
C[---------------------------------------------------]

Then
Gtr. 1
D[----------------------------------------------------------------]
A[----------------------------------------------------------------]
F[----------------------------------------------------------------]
C[-0/0/0/3/0/0-8-7-5--3----2----0/0/0/3/0/0-8-7-5--10----8--10----]
G[-0/0/0/3/0/0-8-7-5--3----2----0/0/0/3/0/0-8-7-5--10----8---8----]
C[-0/0/0/3/0/0-8-7-5--3----2----0/0/0/3/0/0-8-7-5--10----8---8----]
     ...   ...                    ...   ...

D[------------------------------------------------------------------]
A[------------------------------------------------------------------]
F[------------------------------------------------------------------]
C[-0/0/0/3/0/0-8-7-5--3----2----0/0/0/3/0/0-8-7-5--10----12----0----]
G[-0/0/0/3/0/0-8-7-5--3----2----0/0/0/3/0/0-8-7-5--10----12----0----]
C[-0/0/0/3/0/0-8-7-5--3----2----0/0/0/3/0/0-8-7-5--10----12----0----]
     ...   ...                    ...   ...

Gtr. 2
D[-----------------------------------------------------------------]
A[-----------------------------------------------------------------]
F[-------------------10----12--------------------------------------]
C[-0/0/0/3/0/0-8-7-5--x-----x----0/0/0/3/0/0-8-7-5--10----8--10----]
G[-0/0/0/3/0/0-8-7-5--8----10----0/0/0/3/0/0-8-7-5--10----8---8----]
C[-0/0/0/3/0/0-8-7-5-------------0/0/0/3/0/0-8-7-5--10----8---8----]
     ...   ...                     ...   ...


D[-------------------------------------------------------------------]
A[-------------------------------------------------------------------]
F[-------------------10----12----------------------------------------]
C[-0/0/0/3/0/0-8-7-5--x-----x----0/0/0/3/0/0-8-7-5--10----12----0----]
G[-0/0/0/3/0/0-8-7-5--8----10----0/0/0/3/0/0-8-7-5--10----12----0----]
C[-0/0/0/3/0/0-8-7-5-------------0/0/0/3/0/0-8-7-5--10----12----0----]
     ...   ...                     ...   ...


(Whew. finally)

Tabbed by Adam K

            
            
Suggest correction
Creating personal tab
Creating personal tab
You can edit any tab online and save it as your Personal.

You can edit, replace or remove any tab part or add personal notes – all changes will be seen only by you.

Personal tabs can be accessed anytime from any device, even offline.
Learn more »
comments
print report bad tab
10 comments total. Showing first comments.
0 reply
Inanimate 10 Sep 20, 2006 06:10 PM

as always, a perfect tab Adam. Nice to see you on UG

0 reply
Jeff Manthei 30 Oct 23, 2006 08:43 AM

Hey dude, I have a question: What is up with the "/"???

Good tab though... Don't get me wrong... but What the hell are those for???

Thanks for making this tab!

-Jeff

0 reply
Adam K 52 Oct 24, 2006 07:45 AM

the / is for clarity, for example if I put "1111" ,you wouldn't know if what it meant unless i put 11/1/1 or 1/11/1 etc...

guest
You may want to rate the tab now too:
select rating
Wanna post a correction for this tab? Suggest correction