Oops, an error
Loading. Please wait.

Nocturne tab

version 1
version 1

Whole song

Interactive

2,649 views 1 this week
4 commentsread comments
1 2 3 4 5
1 last vote to show rating
add to favorites
×
Save as Personal and add changes to this tab that will be seen only by you. Learn more ›
×
You can save this tab as Personal to edit and correct it or add notes. All changes will be seen only by you. Learn more »
launch autoscroll
font size
0
reset
how to read this tab
guitar tuner
edit
Autoscroll
slow
fast
+/-
esc
set tempo
stop
Riff (A) (intro)
                                                    ×3
e|-------------------------------------------------------|
b|---------4---------------------------------------------|
g|-------3---3--------4---4---------8--------------8-----|
d|-----4------4-----8----8------9-8---8-9------9-8---8-9-|
a|---6------------8-----9-----11-------------11----------|
D|-------------------------------------------------------|

e|------------------------------------------------------|
b|---------4--------------------------------------------|
g|-------3---3--------4---4---------8-------------------|
d|-----4------4-----8----8------9-8---8-9---------------|
a|---6------------8-----9-----11-------------11--(11)---|
D|------------------------------------------------------|

Riff (B)

e|------------------------------------------------------|
b|------------------------------------------------------|
g|-------2-3------2-3------2-3-----2-3------------------|
d|-----4--------4--------4-------4----------------------|
a|---6--------6--------5-------5------------------------|
D|------------------------------------------------------|

e|------------------------------------------------------|
b|------------------------------------------------------|
g|-------2-3------2-3------2-3--------------------------|
d|-----4--------4--------4------------------------------|
a|---6--------6--------5----------5--(5)----------------|
D|------------------------------------------------------|

Riff (A) w/ piano
                                                    ×3
e|-------------------------------------------------------|
b|---------4---------------------------------------------|
g|-------3---3--------4---4---------8--------------8-----|
d|-----4------4-----8----8------9-8---8-9------9-8---8-9-|
a|---6------------8----9-----11-------------11-----------|
D|-------------------------------------------------------|

e|------------------------------------------------------|
b|---------4--------------------------------------------|
g|-------3---3--------4---4---------8-------------------|
d|-----4------4-----8----8------9-8---8-9---------------|
a|---6------------8-----9-----11-------------11--(11)---|
D|------------------------------------------------------|

Riff (B) again

e|------------------------------------------------------|
b|------------------------------------------------------|
g|-------2-3------2-3------2-3-----2-3------------------|
d|-----4--------4--------4-------4----------------------|
a|---6--------6--------5-------5------------------------|
D|------------------------------------------------------|

e|------------------------------------------------------|
b|------------------------------------------------------|
g|-------2-3------2-3------2-3--------------------------|
d|-----4--------4--------4------------------------------|
a|---6--------6--------5----------5--(5)----------------|
D|------------------------------------------------------|

Riff (A) with drums and piano
                                                    ×3
e|-------------------------------------------------------|
b|---------4---------------------------------------------|
g|-------3---3--------4---4---------8--------------8-----|
d|-----4------4-----8----8------9-8---8-9------9-8---8-9-|
a|---6------------8-----9-----11-------------11----------|
D|-------------------------------------------------------|

e|------------------------------------------------------|
b|---------4--------------------------------------------|
g|-------3---3--------4---4---------8-------------------|
d|-----4------4-----8----8------9-8---8-9---------------|
a|---6------------8-----9-----11-------------11--(11)---|
D|------------------------------------------------------|

Riff (B) with distortion

-the distorted guitar does a slide down the neck right
before this, but i think it is your choice to do it or not

                                                    ×4
e|------------------------------------------------------|
b|------------------------------------------------------|
g|------------------------------------------------------|
d|---1--×-×---1-1---1--3--0-(0)--1-0-0-1-0-0------------|
a|---1--×-×---1-1---1--3--0-(0)--1-0-0-1-0-0------------|
D|---1--×-×---1-1---1--3--0-(0)--1-0-0-1-0-0------------|

Riff (A) with drums and piano again
                                                    ×3
e|-------------------------------------------------------|
b|---------4---------------------------------------------|
g|-------3---3--------4---4---------8--------------8-----|
d|-----4------4-----8----8------9-8---8-9------9-8---8-9-|
a|---6------------8-----9-----11-------------11----------|
D|-------------------------------------------------------|

e|------------------------------------------------------|
b|---------4--------------------------------------------|
g|-------3---3--------4---4---------8-------------------|
d|-----4------4-----8----8------9-8---8-9---------------|
a|---6------------8-----9-----11-------------11--(11)---|
D|------------------------------------------------------|

Riff (C) with distortion again
                                                    ×4
e|------------------------------------------------------|
b|------------------------------------------------------|
g|------------------------------------------------------|
d|---1--×-×---1-1---1--3--0-(0)--1-0-0-1-0-0------------|
a|---1--×-×---1-1---1--3--0-(0)--1-0-0-1-0-0------------|
D|---1--×-×---1-1---1--3--0-(0)--1-0-0-1-0-0------------|


Riff (A) & (C) at the same time
                                                    ×4
e|------------------------------------------------------|
b|------------------------------------------------------|
g|------------------------------------------------------|
d|---1--×-×---1-1---1--3--0-(0)--1-0-0-1-0-0------------|
a|---1--×-×---1-1---1--3--0-(0)--1-0-0-1-0-0------------|
D|---1--×-×---1-1---1--3--0-(0)--1-0-0-1-0-0------------|

                                                    ×4
e|-------------------------------------------------------|
b|---------4---------------------------------------------|
g|-------3---3--------4---4---------8--------------8-----|
d|-----4------4-----8----8------9-8---8-9------9-8---8-9-|
a|---6------------8-----9-----11-------------11----------|
D|-------------------------------------------------------|

Riff (A) (outro)
                                                    ×3
e|-------------------------------------------------------|
b|---------4---------------------------------------------|
g|-------3---3--------4---4---------8--------------8-----|
d|-----4------4-----8----8------9-8---8-9------9-8---8-9-|
a|---6------------8-----9-----11-------------11----------|
D|-------------------------------------------------------|

e|------------------------------------------------------|
b|---------4--------------------------------------------|
g|-------3---3--------4---4---------8-------------------|
d|-----4------4-----8----8------9-8---8-9---------------|
a|---6------------8-----9-----11-------------11--(11)---|
D|------------------------------------------------------|

            
            
Suggest correction
Creating personal tab
Creating personal tab
You can edit any tab online and save it as your Personal.

You can edit, replace or remove any tab part or add personal notes – all changes will be seen only by you.

Personal tabs can be accessed anytime from any device, even offline.
Learn more »
Give kudos to tab author, rate the tab!
1 2 3 4 5
comments
print report bad tab
4 comments total. Showing first comments.
0 reply
davidlhcaz 51 Feb 12, 2010 07:31 AM

Everything sounds good. Thank you so much for tabbing! This is an amazing song, by an amazing band.

0 reply
davidlhcaz 51 Feb 27, 2010 09:58 PM

It sounds good except for riff A. I like it more like this

E|--------------------------------------------------------|
B|---------4--------------------------4------------4------|
G|-------3---3------3-4---3-4-----4-3---3-4----4-3---3-4--|
D|-----4------4---3-----4------6------------6-------------|
A|---6----------------------------------------------------|
D|--------------------------------------------------------|

0 reply
Adim M. 10 Aug 30, 2010 09:50 AM

ok, the clean guitar in the beginning is tuned in drop C#(don't grill me on the practicality of that)and goes like this.

--------0-----------------------0-----------0------
------0---0-------0-----0-----0---0-------0---0----
----0-------0---0-----0-----5-------5---5-------5--
--2-----------4-----5-----7-----------7------------
---------------------------------------------------
---------------------------------------------------

the second guitar is tuned in drop C and it's easy to figure out. you guys are makin' it lots harder than it is.
oh, and here's the back up chords for the clean part.

----------
--8---7---
--9---5---
--9---7---
--7---6---
----------
there ya go.

guest
You may want to rate the tab now too:
select rating
Wanna post a correction for this tab? Suggest correction