Oops, an error
Loading. Please wait.

One Man Parade bass

version 1
version 1

Whole song

Interactive

442 views 1 this week
no commentswrite comment
1 2 3 4 5
3 more votes to show rating
add to favorites
×
Save as Personal and add changes to this tab that will be seen only by you. Learn more ›
×
You can save this tab as Personal to edit and correct it or add notes. All changes will be seen only by you. Learn more »
launch autoscroll
font size
0
reset
guitar tuner
edit
Autoscroll
slow
fast
+/-
esc
set tempo
stop
-------------------------------------------------------------------------------
			     One Man Parade - Becoming The Archetype
-------------------------------------------------------------------------------

Tabbed By : Necrotic
e-mail: joelschwallier@gmail.com

Tuning: Drop C

Intro:

F|--------------------------------|--------------------------------|
C|--------------------------------|--------------------------------|
G|--------------------------------|------------------3-5---1-3---0-|
C|0-----0---------0-----0---------|0-----0---------0-----0-----0---|x2

F|--------------------------------|--------------------------------|
C|--------------------------------|--------------------------------|
G|--5-6---8-6-5-6---6-8---9-8-6-8-|--5-6---8-6-5-6---3-5---1-3---0-|
C|0-----0---------0-----0---------|0-----0---------0-----0-----0---|x6

Verse - Triplets (verse twice)

F|-|-------------------------------------------------------------------------|
C|o|-------------------------------------------------------------------------|
G|o|-------------------------------------------------------------------------|
C|-|-000000000000000000000000111111111111111111111111000000000000000000000000|
                                                                            
F|------------------------------------------------------------------------|-|
C|------------------------------------------------------------------------|o|
G|------------------------------------------------------------------------|o|
C|111111111111111111111111333333333333333333333333444444444444444444444444|-|

Guitar Part: 
F|------2-3-5-|
C|2-3-5-------|
G|------------|
C|------------|x4-----\
                       \
F|------0-2-3-|         x4
C|0-2-3-------|         /
G|------------|        /
C|------------|x4-----/

Interlude (Optional, i don't really know if this close or not, or even if the bass plays)
1st Half
F|------------|------------|------------|------------|
C|7--5--------|3-----------|4--2--2-----|2--0--------|
G|------5-----|---6--3-----|------------|------1-----|
C|------------|------------|------------|------------|x2

2nd Half
F|-------------|----8-------|-------------|----10---------|
C|-------10----|10-----8----|-------11----|12------10-----|
G|5--/8--------|------------|6--/9--------|---------------|
C|-------------|------------|-------------|---------------|x2

Post Interlude

F|--------------------------------|
C|----------------0-2-3-2---------|
G|1-3-----3-5-------------3-5-1-0-|
C|----0-0-----0-0-----------------|x6

F|------------------------------|
C|------------------------------|
G|------------------------------|
C|0-5-6---0-6-8---0-0-0---0-0-0-|x2

F|-------------------------|----------------------------|
C|---------0-2-3-2---------|------------0-2-3-2---------|
G|-3-5-------------3-5-1-0-|1-3-----3-5---------3-5-1-0-|
C|-----0-0-----------------|----0-0---------------------|

Fill
F|--------------------------------|-----------------------------------------------|
C|--2-3---0-2---------------------|-----------------------------------------------|
G|--------------3---3-5---0-1---0-|-----------------------------------------------|
C|0-----0-----0---0-----0-----0---|0-8-10-0-7-8-0-5-0-3-5-0-2-3--0----------12//1-|
                                                        rit.
Breakdown
F|----------------|------------------|----------------|----------------|
C|----------------|------------5/6~--|----------------|----------------|
G|----------------|------------------|----------------|----------------|
C|0---3-x-6-5-3-6-|0---6-x-5-0-------|0---3-0-6-5-3-66|0--3--6-3--5--6-|x2
                       |---|can't really figure out

Post-Breakdown
F|----------------|----------------|
C|----------------|----------------|
G|----------------|----------------|
C|0--0--0-0--0--0-|0--3--6-3--5--6-|x4

Main Riff (twice)

F|--|--------------------------------|--------------------------------|
C|o-|--------------------------------|--------------------------------|
G|o-|--5-6---8-6-5-6---6-8---9-8-6-8-|--5-6---8-6-5-6---3-5---1-3---0-|
C|--|0-----0---------0-----0---------|0-----0---------0-----0-----0---|

F|--7-8---10-8-7-8---8-10---11-10-8-10-|--7-8---10-8-7-8-----------------|-|
C|0-----0----------0------0------------|0-----0--------------------------|o|
G|-------------------------------------|-------------------3-5---1-3---0-|o|
C|-------------------------------------|-----------------0-----0-----0---|-|

Verse - Triplets 

F|------------------------------------------------------------------------|
C|------------------------------------------------------------------------|
G|------------------------------------------------------------------------|
C|000000000000000000000000111111111111111111111111000000000000000000000000|
                                                                            
F|------------------------------------------------------------------------|
C|------------------------------------------------------------------------|
G|------------------------------------------------------------------------|
C|111111111111111111111111333333333333333333333333444444444444444444444444|

Outro
F|------2--|
C|2--------|
G|---0-----|
C|---------|

I didn't tab the ending. :C  

| /  slide up
| \  slide down
| h  hammer-on
| p  pull-off
| ~  vibrato
| +  harmonic
| x  Mute note
===============================================================================
Suggest correction
Creating personal tab
Creating personal tab
You can edit any tab online and save it as your Personal.

You can edit, replace or remove any tab part or add personal notes – all changes will be seen only by you.

Personal tabs can be accessed anytime from any device, even offline.
Learn more »
Give kudos to tab author, rate the tab!
1 2 3 4 5
comments
print report bad tab
guest
You may want to rate the tab now too:
select rating
Wanna post a correction for this tab? Suggest correction