Oops, an error
Loading. Please wait.

1259 Lullaby bass

version 1
version 1

Whole song

Interactive

2,591 views 1 this week
2 commentsread comments
1 2 3 4 5
2 more votes to show rating
add to favorites
×
Save as Personal and add changes to this tab that will be seen only by you. Learn more ›
×
You can save this tab as Personal to edit and correct it or add notes. All changes will be seen only by you. Learn more »
launch autoscroll
font size
0
reset
guitar tuner
edit
Autoscroll
slow
fast
+/-
esc
set tempo
stop
12:59 Lullaby

Verse
-----------------------------------------------------|
-------5-55-5------------------77-7------------------|
-----------------5----3----3---------7----5----------|        x2
-----------------------------------------------------|


---------------------|
---5-55-5------------|
---------------------|
------------5--7-----|

Chorus
-----------------------------------------------------------------------------|
-----------------------------------------------------------------------------|
-33333333--------------------------------------------------------------------|
--------------77777777—55555555-----111111111—55–77--------------------------|

----------------------------------------------------------------------------|
----------------------------------------------------------------------------|
—33333333-----77777777------1212121212121212----7777—5555-------------------|
----------------------------------------------------------------------------|

Bridge

------------------------------------------------|
------------------10-9-----9-7------7--5--------|
----333----------------7--------5---------------|     x3
------------------------------------------------|

Bridge Alternate
------------------------------------------------------------|
----------10-9—12––9—12—14-14-----9—10----------------------|
–333--------------------------------------------------------|     x1
------------------------------------------------------------|

Verse
Chorus
Bridge
Bridge Alternate
Verse
Chorus
Bridge x4
Chorus x2

Please rate this tab because its my first one
Suggest correction
Creating personal tab
Creating personal tab
You can edit any tab online and save it as your Personal.

You can edit, replace or remove any tab part or add personal notes – all changes will be seen only by you.

Personal tabs can be accessed anytime from any device, even offline.
Learn more »
Give kudos to tab author, rate the tab!
1 2 3 4 5
comments
print report bad tab
2 comments total.
0 reply
rohrfa 10 Jun 11, 2008 12:49 AM

Verse
-----------------------------------------------------|
-------5-55-5------------------77-7------------------|
-----------------5----7----7---------7----5----------| x2
-----------------------------------------------------|


Chorus
-----------------------------------------------------------------------------|
-----------------------------------------------------------------------------|
-33333333--------------------------------------------------------------------|
--------------77777777—55555555-----111111111—55–77--------------------------|

----------------------------------------------------------------------------|
----------------------------------------------------------------------------|
—33333333-----88888888------1212121212121212----7777—5555-------------------|
----------------------------------------------------------------------------|

0 reply
rohrfa 10 Jun 11, 2008 12:49 AM

Verse
-----------------------------------------------------|
-------5-55-5------------------77-7------------------|
-----------------5----7----7---------7----5----------| x2
-----------------------------------------------------|


Chorus
-----------------------------------------------------------------------------|
-----------------------------------------------------------------------------|
-33333333--------------------------------------------------------------------|
--------------77777777—55555555-----111111111—55–77--------------------------|

----------------------------------------------------------------------------|
----------------------------------------------------------------------------|
—33333333-----88888888------1212121212121212----7777—5555-------------------|
----------------------------------------------------------------------------|

guest
Wanna post a correction for this tab? Suggest correction