Oops, an error
Loading. Please wait.

1259 Lullaby Tab

version 1
version 1

Whole song

Interactive

8,857 views 1 this week
2 commentsread comments
1 2 3 4 5
please rate
add to favorites
launch autoscroll
font size
0
reset
how to read this tab
guitar tuner
Autoscroll
slow
fast
+/-
esc
set tempo
stop
Help us to improve Ultimate-Guitar.com Take our survey!
×
Difficulty
intermediate
Tabbed by: Matt Stone
The other tab I saw is wrong. Hope this helps everyone.
For the bar chords example: e|-----     ----|
                            B|--7--     -9--|
                            G|--7-- and -9--|
                            D|--7--     -9--|
                            A|--9--     -11-|
                            E|-----     ----|
use you index (1st) finger to bar(7s and 9s) and your ring (3rd) finger to play the 
note. The rest are pretty simple. The note marked in brackets ( ) is optional if you can 
it with your 4th finger but is what is played. Enjoy.


Intro
e|-----
B|---10
G|---9-
D|---11
A|-----
E|-----

verse
e|----------------------------                      ------|
B|---10---9----7---10----12---                      --12--|
G|---9----9----7---11----11---   Before Bridge hold --11--|
D|---11---9----7---11----9----                      --9---|
A|--------11---9---9----------                      ------|
E|----------------------------                      ------|

Bridge
"But I know..."
e|-------------|
B|-----9----12-|
G|-----9----11-|   Repeat until chorus
D|-----9----9--|
A|-----11------|
E|-------------|

Chorus
"And if you want..."
e|------------------------(10)---|
B|----------10---9----10---7-----|
G|----------9----9----11---7-----|
D|----------11---9----11---7-----|
A|---------------11---9----9-----|
E|-------------------------------|

Instrumental break
e|------------------------|
B|----------10---9----7---|
G|----------9----9----7---|
D|----------11---9----7---|
A|---------------11---9---|
E|------------------------|

That's pretty much it. Have fun with it!
Suggest correction new What's this?
You can suggest a correction to this tab. Community and Mods will review your correction and vote to approve or reject it.
comments
We did not receive enough feedback on this tab! Please rate:
print report bad tab
1 2 3 4 5
2 comments total.
0 reply
CurtisJay 649 wrote on November 10 2006, 11:52 am

Intro
e|----- That is the same as e|--5- which i found orginally was too
B|---10 B|--5- low for the song. play along
G|---9- G|--6- with it and you'll notice it's
D|---11 off
A|-----
E|-----

0 reply
CurtisJay 649 wrote on November 10 2006, 11:54 am

frick awful comments G is 6 B is 5 and e is 5 and like i said, it sounds way off when you play along. And this song uses ska chords which only involve the bottom 3 strings, its unnecessary to tab this song on 4,3, and 2

guest
You may want to rate the tab now too:
select rating
Please do not post tabs as comments. Select "correction" instead!