Oops, an error
Loading. Please wait.

1259 Lullaby chords

version 3
version 3

Whole song

Interactive

7,770 views 3 this week
1 commentread comment
1 2 3 4 5
3 more votes to show rating
add to favorites
×
Save as Personal and add changes to this tab that will be seen only by you. Learn more ›
×
You can save this tab as Personal to edit and correct it or add notes. All changes will be seen only by you. Learn more »
launch autoscroll
font size
0
reset
transpose
0
reset
display chords
guitar tuner
edit
Autoscroll
slow
fast
+/-
esc
set tempo
stop
Author
Difficulty
Strumming
There is no strumming pattern for this song yet. and get +5 IQ
I noticed in some of the other tabs there are sum chords missing so i did this one hopes 
correct.


N.B.  Hey these chords in the song are played an octave higher


Intro C x4

V1
C                  Em           F
it's silent in the early morning
               Am    Dm       C
the only sound is my breathing
           Em           F
as i lay awake not knowing
              Am     Dm
where it will be i'm going.

BRIDGEY BIT

      G    Dm             G     Dm
but i know,    time moves slow
       G Dm             G
at 12:59,   i sing lullaby

CHORUS
           C          Em         Am      F
and if you want me to sing you a song, I know
              C   Em     Am   F
that theres a 12:59 lullaby tonight.

C Em F C x4

V2
                   Em     F
i'll see the next hour through,
                Am      Dm    C
it falls to the next so soon.
                Em           F
while my guitar waits for a tune,
               Am           Dm
where have the songs played gone to

BRIDGEY BIT (see up)

CHORUS

C Em F C x4

CHORUS


PLAY C Em Am F over:  a-oooh a-ooooh a-ooooh

C x4

END

In the "bridgey bit" there's a guitar riff:

s=slide

  C       Em  F       C       x3 (on 4th time only bit marked * is played)

E--12s13--*--5s7-3s5----------|
B-------------------5s8-------|
G-----------------------------|
D-----------------------------|
A-----------------------------|
E-----------------------------|


For the singers this is the tab for the harmony used in the chorus and if you (like me)
sing then now you can play it on your guitar..and it's as easy as pie!!


  And if you want me to sing you a song i know  ,that theres a 12
E--1--1---1--0----3---0------1---3--0---1-3-1-0---1-----1----1-0-|
B-------------------------3--------------------------------------|
G----------------------------------------------------------------|
D----------------------------------------------------------------|
A----------------------------------------------------------------|
E----------------------------------------------------------------|


  fifty nine lullaby tonight
E-3--0-------1-3--0--1-3-1-0---|
B---------3--------------------|
G------------------------------|
D------------------------------|
A------------------------------|
E------------------------------|

By Rob S enjoy, rate and comment...
Suggest correction
Creating personal tab
Creating personal tab
You can edit any tab online and save it as your Personal.

You can edit, replace or remove any tab part or add personal notes – all changes will be seen only by you.

Personal tabs can be accessed anytime from any device, even offline.
Learn more »
Give kudos to tab author, rate the tab!
1 2 3 4 5
comments
print report bad tab
1 comment total.
0 reply
duridevil 20 Oct 07, 2013 06:30 AM

Can you put the chord tab?? Cause there are different variations. But the one that you used?

guest
You may want to rate the tab now too:
select rating
Wanna post a correction for this tab? Suggest correction