Oops, an error
Loading. Please wait.

Gyasi Went Home bass

version 1
version 1

Whole song

Interactive

3,116 views 3 this week
1 commentread comment
1 2 3 4 5
x 5
add to favorites
×
Save as Personal and add changes to this tab that will be seen only by you. Learn more ›
×
You can save this tab as Personal to edit and correct it or add notes. All changes will be seen only by you. Learn more »
launch autoscroll
font size
0
reset
guitar tuner
edit
Autoscroll
slow
fast
+/-
esc
set tempo
stop
Band Website:
    http://www.bedouinsoundclash.com/

Standard Tuning: EADG

Intro/Verse/Solo:
G|----------------------------------||
D|----------------0--2--4--6-------*|| 12x
A|--12p0-0--2--4-------------------*||     (On the 12th time, leave
E|----------------------------------||        out the last G#.)

Chorus:
G|-----------------------||
D|----------------------*|| 3x
A|--4-5--5-4---2-2-0~---*||
E|-----------------------||

Chorus Con't:
G|-------1-4-------1-4-------------------||
D|--2--2------2--2------2-2-0-0----------||
A|------------------------------4-4-2-2--||
E|---------------------------------------||

Outro:
       Verse 7 times, on the 8th time:
G|----------------------------------||
D|----------------0--2--4--6--7~----||
A|--12p0-0--2--4--------------------||   
E|----------------------------------||

Order: Verse
        Chorus
         Verse
          Chorus
           Solo
            Chorus
             Outro
Suggest correction
Creating personal tab
Creating personal tab
You can edit any tab online and save it as your Personal.

You can edit, replace or remove any tab part or add personal notes – all changes will be seen only by you.

Personal tabs can be accessed anytime from any device, even offline.
Learn more »
comments
print report bad tab
1 comment total.
0 reply
Tristan_1985 93 Apr 02, 2008 04:10 AM

G|---------------------------1-2--------||
D|------------------0--2--4------------*|| 12x
A|-----(0)-0--2--4---------------------*||
E|--------------------------------------||

this'd be my suggestion, played along the original it sounds best
the rest is still pretty acurate

guest
Wanna post a correction for this tab? Suggest correction