Oops, an error
Loading. Please wait.

Trinco Dog bass

version 1
version 1

Whole song

1,243 views 1 this week
1 commentread comment
1 2 3 4 5
x 4
add to favorites
×
Save as Personal and add changes to this tab that will be seen only by you. Learn more ›
×
You can save this tab as Personal to edit and correct it or add notes. All changes will be seen only by you. Learn more »
launch autoscroll
font size
0
reset
guitar tuner
edit
Autoscroll
slow
fast
+/-
esc
set tempo
stop
Author
Band: Bedouin soundclash
Album: street gospels
Song: Trinco dog

Ok, so I have done this quickly
So the timing isn’t perfect..sorry
but it's easy if you listen
I think most of the notes are correct

Please rate

Verse 0:10
	
G|-----------|
D|-----------| 
A|---1-----1-| x3
E|-11—-1-3---|

G|-----------|
D|-----------| 
A|-----0-0-0-|
E|---1-------|

Pre-chorus 0:18

G|-------------------------|
D|-11-33-55-11-------------| 
A|-------------11----11-11-|
E|----------------11-------|

Chorus 0:28

G|--------------------3------3-|
D|------1------1---0-3----0-3--| 
A|---0-3----0-3--11-----11-----|
E|-1------11-------------------|

G|-------------|
D|----------11-| 
A|----00-33----|
E|-11----------|

G|-------------------------|
D|-11-33-55-11-------------| 
A|-------------11----11-11-|
E|----------------11-------|

Pause 

Verse 0:59
Pre-chorus
Chorus 1:18

Pause

Verse 1:54

G|-----------|
D|-----------| 
A|---2-----2-| x3
E|-22—-2-4---|

G|-----------|
D|-----------| 
A|-----1-1-1-|
E|---2-------|

Pre-chorus        

G|-------------------------|
D|-22-44-66-22-------------| 
A|-------------22----22-22-|
E|----------------22-------|

Chorus 2:13

G|--------------------4------4-|
D|------2------2---1-4----1-4--| 
A|---1-4----1-4--22-----22-----|
E|-2------22-------------------|

G|-------------|
D|----------22-| 
A|----11-44----|
E|-22----------|

G|-------------------------|
D|-22-44-66-22-22-44-66-22-| 
A|-------------------------|
E|-------------------------|

G|-------------------------|
D|-22-44-------------------| 
A|-------66-44-22----22-22-|
E|----------------22-------|

            
            
Suggest correction
Creating personal tab
Creating personal tab
You can edit any tab online and save it as your Personal.

You can edit, replace or remove any tab part or add personal notes – all changes will be seen only by you.

Personal tabs can be accessed anytime from any device, even offline.
Learn more »
comments
print report bad tab
1 comment total.
0 reply
johnny butt 575 May 17, 2008 11:38 AM

this is almost perfect. the 11's may be a little confusing though. i'd suggest having at least a dash between each note

guest
You may want to rate the tab now too:
select rating
Wanna post a correction for this tab? Suggest correction