Oops, an error
Loading. Please wait.

Trinco Dog bass

version 2
version 2

Whole song

353 views 1 this week
no commentswrite comment
1 2 3 4 5
3 more votes to show rating
add to favorites
×
Save as Personal and add changes to this tab that will be seen only by you. Learn more ›
×
You can save this tab as Personal to edit and correct it or add notes. All changes will be seen only by you. Learn more »
launch autoscroll
font size
0
reset
guitar tuner
edit
Autoscroll
slow
fast
+/-
esc
set tempo
stop
Author
Difficulty
Song: Trinco Dog
Band: Bedouin Soundclash
Album: Street Gospels
Bassist: Eon Sinclair

G------------------------------|
D------------------------------|    x3
A------------1-----------1-----|
E---1---1-------1---3----------|

               4th time
G-----------------------------|
D-----------------------------|
A---------0---0---0-----------|
E----1------------------------|


G----------------------0---0------------------------------------------------------|
D---1---1----3---3------------1---1-----------------------------------------------|
A----------------------------------------1---1------------1---1---------1---1-----|
E-------------------------------------------------1---1---------------------------|

G--------------------------------------------------------------------3------------------------3---|
D---------------1-------------------------1-----------------0---3--------------------0---3--------|
A------0---3--------------------0----3--------------1--1----------------------1---1---------------|
E---1--------------------1---1--------------------------------------------------------------------|

G--------------------------------------------------------0---0------------------------------------|
D----------------------------1---1-----1---1-----3---3-----------1---1----------------------------|
A---------0---0----3---3----------------------------------------------------1---1----------1---1--|
E---1---1---------------------------------------------------------------------------1---1---------|


Repeat All


G------------------------------|
D------------------------------|    x3
A------------2-----------2-----|
E---2---2-------2---4----------|

               4th time
G-----------------------------|
D-----------------------------|
A---------1---1---1-----------|
E----2------------------------|


G--------------------1---1-----------------------------------------------------|
D---2---2----4---4------------2---2--------------------------------------------|
A--------------------------------------2---2------------2---2---------2---2----|
E-----------------------------------------------2---2--------------------------|

G--------------------------------------------------------------------4------------------------4---|
D---------------2-------------------------2-----------------1---4--------------------1---4--------|
A------1---4--------------------1----4-------------2---2----------------------2---2---------------|
E---2--------------------2---2--------------------------------------------------------------------|

G-------------------------------------------------------------1---1-------------|
D---------------------------------2---2-----2---2-----4---4-----------2---2-----|
A-----------1---1----4---4------------------------------------------------------|
E---2---2-----------------------------------------------------------------------|

G-----------------------1---1--------------|
D---2---2-----4---4--------------2---2-----|
A------------------------------------------|
E------------------------------------------|

G------------------------------------------------------------------------------------|
D---2---2-----4---4-----2---2--------------------------------------------------------|
A-----------------------------------4---4---------2---2-----------2---2-----2---2----|
E----------------------------------------------------------2---2---------------------|

It's not timed or anything because it should be easy to play along with. It's a great 
Please Rate. Enjoy.

Tabbed By: Jorlock

            
            
Suggest correction
Creating personal tab
Creating personal tab
You can edit any tab online and save it as your Personal.

You can edit, replace or remove any tab part or add personal notes – all changes will be seen only by you.

Personal tabs can be accessed anytime from any device, even offline.
Learn more »
Give kudos to tab author, rate the tab!
1 2 3 4 5
comments
print report bad tab
guest
You may want to rate the tab now too:
select rating
Wanna post a correction for this tab? Suggest correction