Oops, an error
Loading. Please wait.

Walls Fall Down Tab

version 1
version 1

Whole song

Interactive

9,522 views 3 this week
no commentswrite comment
1 2 3 4 5
x 4
add to favorites
launch autoscroll
font size
0
reset
how to read this tab
guitar tuner
Autoscroll
slow
fast
+/-
esc
set tempo
stop
Help us to improve Ultimate-Guitar.com Take our survey!
×
Author
Bedouin Sound clash – Walls Fall Down

zack_ritch@hotmail.com
I am not quite sure of this but I think I have to chords right.
If there are any corrections I would be pleased to hear them.


Intro
E|--7--6--7--7---7--6--7------------|
B|--7--7--7--7---6--7--7------------|
G|--8--6--6--8---7--6--6------------|
D|--9------------9------------------|
A|----------------------------------|
E|----------------------------------|

Verse
E|--7--7--7--7-|-6--6--7--7-|-7--7--7--7-|-6--6--6--6-----------|
B|--7--7--7--7-|-7--7--7--7-|-7--7--7--7-|-6--6--6--6-----------|
G|--6--6--6--6-|-6--6--6--6-|-6--6--6--6-|-7--7--7--7-----------|
D|-------------|------------|------------|----------------------|
A|-------------|------------|------------|----------------------|
E|-------------|------------|------------|----------------------|     X4

Chorus
E|--77777777--77777777--6666666666666666---77777777--77777777--6666666666666666--|
B|--77777777--77777777--7777777777777777---77777777--77777777--7777777777777777--|
G|--88888888--66666666--6666666666666666---88888888--66666666--6666666666666666--|
D|--99999999-------------------------------99999999------------------------------|
A|-------------------------------------------------------------------------------|
E|-------------------------------------------------------------------------------|
   |
E|--77777777--66666666--77777777--77777777---77777777--66666666--77777777--|
B|--77777777--77777777--77777777--77777777---66666666--77777777--77777777--|
G|--88888888--66666666--66666666--88888888---77777777--66666666--66666666--|
D|--99999999----------------------99999999---------------------------------|
A|-------------------------------------------------------------------------|
E|-------------------------------------------------------------------------|

Verse  X2  - Picking some Chords

Chorus

Verse  X2   - Picking some Chords

E|--77777777--77777777--6666666666666666---77777777--77777777--6666666666666666--|
B|--77777777--77777777--7777777777777777---77777777--77777777--7777777777777777--|
G|--88888888--66666666--6666666666666666---88888888--66666666--6666666666666666--|
D|--99999999-------------------------------99999999------------------------------|
A|-------------------------------------------------------------------------------|
E|-------------------------------------------------------------------------------|
Till End
Suggest correction
comments
print report bad tab
guest
You may want to rate the tab now too:
select rating
Wanna post a correction for this tab? Suggest correction