Oops, an error
Loading. Please wait.

Nothing Lasts Tab

823 views 42 this week
4 commentsread comments
1 2 3 4 5
x 4
add to favorites
launch autoscroll
font size
0
reset
how to read this tab
guitar tuner
Autoscroll
slow
fast
+/-
esc
set tempo
stop
Help us to improve Ultimate-Guitar.com Take our survey!
×
Author
Difficulty
Capo
intermediate
3rd fret
Capo 3

[Intro]
Guitar 1 (Acoustic guitar with capo on 3)
e|-3~-------3-3-3~-----h5p3-------2-2-2-2-2-2-2p0-5/3~------2-2-2-2-2p0-0-0-0-0-0-0----|
B|-0~-------0-0-0~------0-0-------0-0-0-0-0-0-0-0-0-0~------0-0-0-0-0-0-0-0-0-0-0-0----|
G|-0~-------0-0-0~------0-0-------0-0-0-0-0-0-0-0-----------0-0-0-0-0-0-0-0-0-0-0-0----| 
D|-2~-------2-2-2~------2-2-------0-0-0-0-0-0-0-0-----------0-0-0-0-0-0-0-0-0-0-0-0----|
A|-3~-------3-3-3~------3-3-------2-2-2-2-2-2-2-2-----------2-2-2-2-2-2-2-2-2-2-2-2----|
E|-0~-------0-0-0~------0-0-------3-3-3-3-3-3-3-3-----------3-3-3-3-3-3-3-3-3-3-3-3----|
            ^ v ^       v v       ^ ^ v ^ v ^ v ^ v v       ^ ^ v ^ v ^ v ^ v v ^ ^

e|-3-3-3----3-3-3~-----h5p3-------2-2-2-2-2-2-2p0-5/3~------2-2-2-2-2p0-0-0-0-0-0-0----|
B|-0-0-0----0-0-0~------0-0-------0-0-0-0-0-0-0-0-0-0~------0-0-0-0-0-0-0-0-0-0-0-0----|
G|-0-0-0----0-0-0~------0-0-------0-0-0-0-0-0-0-0-----------0-0-0-0-0-0-0-0-0-0-0-0----| 
D|-2-2-2----2-2-2~------2-2-------0-0-0-0-0-0-0-0-----------0-0-0-0-0-0-0-0-0-0-0-0----|
A|-3-3-3----3-3-3~------3-3-------2-2-2-2-2-2-2-2-----------2-2-2-2-2-2-2-2-2-2-2-2----|
E|-0-0-0----0-0-0~------0-0-------3-3-3-3-3-3-3-3-----------3-3-3-3-3-3-3-3-3-3-3-3----|
   ^ v ^    ^ v ^       v v       ^ ^ v ^ v ^ v ^ v v       ^ ^ v ^ v ^ v ^ v v ^ ^


Guitar 2 (Electric guitar with clean signal)
e|-3----------3-------------------2-------------------------0-------|
B|-0----------0-------------------0-------------------------0-------|
G|-0----------0-------------------0-------------------------0-------| Keep strumming as the verse goes
D|-2----------2-------------------0-------------------------0-------|
A|-3----------3-------------------2-------------------------2-------|
E|-0----------0-------------------3-------------------------3-------|

Guitar 1
e|-3-3-3----3-3-3~-----h5p3-------2-2-2-2-2-2-2p0-5/3~------2-2-2-2-2p0-0-0-0-0-0-0----|
B|-0-0-0----0-0-0~------0-0-------0-0-0-0-0-0-0-0-0-0~------0-0-0-0-0-0-0-0-0-0-0-0----|
G|-0-0-0----0-0-0~------0-0-------0-0-0-0-0-0-0-0-----------0-0-0-0-0-0-0-0-0-0-0-0----| 
D|-2-2-2----2-2-2~------2-2-------0-0-0-0-0-0-0-0-----------0-0-0-0-0-0-0-0-0-0-0-0----| x2
A|-3-3-3----3-3-3~------3-3-------2-2-2-2-2-2-2-2-----------2-2-2-2-2-2-2-2-2-2-2-2----|
E|-0-0-0----0-0-0~------0-0-------3-3-3-3-3-3-3-3-----------3-3-3-3-3-3-3-3-3-3-3-3----|
   ^ v ^    ^ v ^       v v       ^ ^ v ^ v ^ v ^ v v       ^ ^ v ^ v ^ v ^ v v ^ ^


[Verse 1]

Guitar 2
e|-3----------3-------------------2-------------------------0-------|
B|-0----------0-------------------0-------------------------0-------|
G|-0----------0-------------------0-------------------------0-------| Keep strumming as the verse goes
D|-2----------2-------------------0-------------------------0-------|
A|-3----------3-------------------2-------------------------2-------|
E|-0----------0-------------------3-------------------------3-------|

I pray to god
To stop these thoughts
It works for me
Can't you see


[Verse 2]

Guitar 1
e|-3~-------3-3-3~-----h5p3-------2-2-2-2-2-2-2p0-5/3~------2-2-2-2-2p0-0-0-0-0-0-0----|
B|-0~-------0-0-0~------0-0-------0-0-0-0-0-0-0-0-0-0~------0-0-0-0-0-0-0-0-0-0-0-0----|
G|-0~-------0-0-0~------0-0-------0-0-0-0-0-0-0-0-----------0-0-0-0-0-0-0-0-0-0-0-0----| 
D|-2~-------2-2-2~------2-2-------0-0-0-0-0-0-0-0-----------0-0-0-0-0-0-0-0-0-0-0-0----|
A|-3~-------3-3-3~------3-3-------2-2-2-2-2-2-2-2-----------2-2-2-2-2-2-2-2-2-2-2-2----|
E|-0~-------0-0-0~------0-0-------3-3-3-3-3-3-3-3-----------3-3-3-3-3-3-3-3-3-3-3-3----|
            ^ v ^       v v       ^ ^ v ^ v ^ v ^ v v       ^ ^ v ^ v ^ v ^ v v ^ ^

e|-3-3-3----3-3-3~-----h5p3-------2-2-2-2-2-2-2p0-5/3~------2-2-2-2-2p0-0-0-0-0-0-0----|
B|-0-0-0----0-0-0~------0-0-------0-0-0-0-0-0-0-0-0-0~------0-0-0-0-0-0-0-0-0-0-0-0----|
G|-0-0-0----0-0-0~------0-0-------0-0-0-0-0-0-0-0-----------0-0-0-0-0-0-0-0-0-0-0-0----| 
D|-2-2-2----2-2-2~------2-2-------0-0-0-0-0-0-0-0-----------0-0-0-0-0-0-0-0-0-0-0-0----|
A|-3-3-3----3-3-3~------3-3-------2-2-2-2-2-2-2-2-----------2-2-2-2-2-2-2-2-2-2-2-2----|
E|-0-0-0----0-0-0~------0-0-------3-3-3-3-3-3-3-3-----------3-3-3-3-3-3-3-3-3-3-3-3----|
   ^ v ^    ^ v ^       v v       ^ ^ v ^ v ^ v ^ v v       ^ ^ v ^ v ^ v ^ v v ^ ^

Guitar 2
e|-3----------3-------------------2-------------------------0-------|
B|-0----------0-------------------0-------------------------0-------|
G|-0----------0-------------------0-------------------------0-------| Keep strumming as the verse goes
D|-2----------2-------------------0-------------------------0-------|
A|-3----------3-------------------2-------------------------2-------|
E|-0----------0-------------------3-------------------------3-------|

I know that I'm better
I'm writing this letter
To my past self
Sitting on the shelf


[Interlude]

Guitar 2
e|-3----------3-------------------2-------------------------0-------|
B|-0----------0-------------------0-------------------------0-------|
G|-0----------0-------------------0-------------------------0-------| Keep strumming as the verse goes
D|-2----------2-------------------0-------------------------0-------| 
A|-3----------3-------------------2-------------------------2-------| x2
E|-0----------0-------------------3-------------------------3-------|
 

[Verse 3]

e|-3----------3-------------------2-------------------------0-------|
B|-0----------0-------------------0-------------------------0-------|
G|-0----------0-------------------0-------------------------0-------| Keep strumming as the verse goes
D|-2----------2-------------------0-------------------------0-------|
A|-3----------3-------------------2-------------------------2-------|
E|-0----------0-------------------3-------------------------3-------|

Nothing lasts
Its for the best
I won't stay here
I won't stay there


[Verse 4]

Guitar 1
e|-3~-------3-3-3~-----h5p3-------2-2-2-2-2-2-2p0-5/3~------2-2-2-2-2p0-0-0-0-0-0-0----|
B|-0~-------0-0-0~------0-0-------0-0-0-0-0-0-0-0-0-0~------0-0-0-0-0-0-0-0-0-0-0-0----|
G|-0~-------0-0-0~------0-0-------0-0-0-0-0-0-0-0-----------0-0-0-0-0-0-0-0-0-0-0-0----| 
D|-2~-------2-2-2~------2-2-------0-0-0-0-0-0-0-0-----------0-0-0-0-0-0-0-0-0-0-0-0----|
A|-3~-------3-3-3~------3-3-------2-2-2-2-2-2-2-2-----------2-2-2-2-2-2-2-2-2-2-2-2----|
E|-0~-------0-0-0~------0-0-------3-3-3-3-3-3-3-3-----------3-3-3-3-3-3-3-3-3-3-3-3----|
            ^ v ^       v v       ^ ^ v ^ v ^ v ^ v v       ^ ^ v ^ v ^ v ^ v v ^ ^

e|-3-3-3----3-3-3~-----h5p3-------2-2-2-2-2-2-2p0-5/3~------2-2-2-2-2p0-0-0-0-0-0-0----|
B|-0-0-0----0-0-0~------0-0-------0-0-0-0-0-0-0-0-0-0~------0-0-0-0-0-0-0-0-0-0-0-0----|
G|-0-0-0----0-0-0~------0-0-------0-0-0-0-0-0-0-0-----------0-0-0-0-0-0-0-0-0-0-0-0----| 
D|-2-2-2----2-2-2~------2-2-------0-0-0-0-0-0-0-0-----------0-0-0-0-0-0-0-0-0-0-0-0----|
A|-3-3-3----3-3-3~------3-3-------2-2-2-2-2-2-2-2-----------2-2-2-2-2-2-2-2-2-2-2-2----|
E|-0-0-0----0-0-0~------0-0-------3-3-3-3-3-3-3-3-----------3-3-3-3-3-3-3-3-3-3-3-3----|
   ^ v ^    ^ v ^       v v       ^ ^ v ^ v ^ v ^ v v       ^ ^ v ^ v ^ v ^ v v ^ ^

Guitar 2
e|-3----------3-------------------2-------------------------0-------|
B|-0----------0-------------------0-------------------------0-------|
G|-0----------0-------------------0-------------------------0-------| Keep strumming as the verse goes
D|-2----------2-------------------0-------------------------0-------|
A|-3----------3-------------------2-------------------------2-------|
E|-0----------0-------------------3-------------------------3-------|

Cause' now I'm happy
For you have changed me
I am so thankful
No longer painful


[Outro]

Guitar 2
e|-3----------3-------------------2-------------------------0-------|
B|-0----------0-------------------0-------------------------0-------|
G|-0----------0-------------------0-------------------------0-------| Keep strumming as the music goes
D|-2----------2-------------------0-------------------------0-------| 
A|-3----------3-------------------2-------------------------2-------| x4 and them fading 
E|-0----------0-------------------3-------------------------3-------|


************************************

| h  Hammer-on
| p  Pull-off
| /  Slide up
| ~  Vibrato

************************************
Suggest correction
comments
print report bad tab
4 comments total. Showing first comments.
+1 reply
Inamortas 33 Sep 30, 2016 04:41 PM

great tab, thanks!

+1 reply
preciousabang1 85 Oct 04, 2016 02:28 AM

thank you so much for this

0 reply
caasi-g 194 Oct 04, 2016 11:35 AM

were you guys able to play it right? its a bit complex to visualize in a tab, but all infos are there :D

guest
You may want to rate the tab now too:
select rating
Wanna post a correction for this tab? Suggest correction