Oops, an error
Loading. Please wait.

Fanny Be Tender With My Love bass

version 1
version 1

Whole song

Interactive

157 views 1 this week
no commentswrite comment
1 2 3 4 5
3 more votes to show rating
add to favorites
×
Save as Personal and add changes to this tab that will be seen only by you. Learn more ›
×
You can save this tab as Personal to edit and correct it or add notes. All changes will be seen only by you. Learn more »
launch autoscroll
font size
0
reset
guitar tuner
edit
Autoscroll
slow
fast
+/-
esc
set tempo
stop
FANNY (BE TENDER WITH MY LOVE) (Bassline)

As recorded by Bee Gees
(From the 1975 Album MAIN COURSE)

Words and Music by Barry Gibb & Robin Gibb

Transcribed by Slowhand


Gtr I (E A D G) - 'Maurice Gibb - Bass'


 Intro
  Q=96
 4/4
  Gtr I
  Q.   E +H       Q.   E +H       Q.   E +H       Q.   E +H
|---------------|---------------|---------------|---------------||
|---------------|---------------|---------------|---------------||
|-7-------------|-7-------------|-7-------------|-7-------------||
|------7-(7)----|------7-(7)----|------7-(7)----|------7-(7)----||


   1st & 2nd Verses
    Q.   E +H       Q.   E +H       Q.   E +H       Q.   E +Q   Q
||----------------|---------------|---------------|----------------|
||o---------------|---------------|---------------|----------------|
||o-7-------------|-7-------------|-7-------------|-7-----------7--|
||-------7-(7)----|------7-(7)----|------7-(7)----|------7-(7)-----|


                 2/4      4/4
  Q.   E +H       Q.   E   Q.   E +Q.   E   +E  E E E +E  E Q
|---------------|--------|----------------|---------------------|
|---------------|--------|--------------6-|-(6)-6---6-(6)---6---|
|-9-------------|-9----7-|----------------|-------6-------6-----|
|------7-(7)----|--------|-9----7-(7)-----|---------------------|


  H    H      H    H      Q.   E +Q.   E   +Q   E E +E  E Q
|-----------|-----------|----------------|--------------------||
|-4----6----|-----------|--------------6-|-(6)--6-6-(6)-6-6---||
|-----------|-4----4----|-4--------------|--------------------||
|-----------|-----------|------7-(7)-----|--------------------||


 Chorus
  H    H      Q  Q  H      H    H      H    H
|-----------|------------|-----------|-----------|
|-7----7----|-6-----6----|-4----6----|-----------|
|-----------|----6-------|-----------|-4----4----|
|-----------|------------|-----------|-----------|


  H    H      Q  Q  H      H    H      Q  Q  Q  Q
|-----------|------------|-----------|--------------|
|-7----7----|-6-----6----|-4----4----|--------------|
|-----------|----6-------|-----------|-2--2--2--2---|
|-----------|------------|-----------|--------------|


  1.                        2.
  S E S E S S +S  S E Q      S E S E S S +S  S E S S E   e e e E H
|-4-4-4-4-4-4-(4)-4-4-4---||-4-4-4-4-4-4-(4)-4-4-4-----|--------------||
|------------------------o||-----------------------7-4-|--------------||
|------------------------o||---------------------------|-7-7-7--------||
|-------------------------||---------------------------|--------------||


  Q.   E Q.   E   Q.   E Q.   E   Q.   E Q.   E   Q.   E Q.   E
|---------------|---------------|---------------|----------------|
|-7----7-7----7-|-7----7-7----7-|-6----6-6----6-|-6----6-6----6--|
|---------------|---------------|---------------|----------------|
|---------------|---------------|---------------|----------------|


  Q.   E Q.   E   Q.   E Q.   E   Q.   E Q.   E   Q  Q  Q  Q
|---------------|---------------|-4----4-4----4-|-4--4--4--4---||
|-7----7-7----7-|-7----7-7----7-|---------------|--------------||
|---------------|---------------|---------------|--------------||
|---------------|---------------|---------------|--------------||


   Chorus
    H    H      Q  Q  H      H    H      H    H
||------------|------------|-----------|-----------|
||o-7----7----|-6-----6----|-4----6----|-----------|
||o-----------|----6-------|-----------|-4----4----|
||------------|------------|-----------|-----------|


                                      1.
  H    H      Q  Q  H      H    H      Q  Q  Q  Q
|-----------|------------|-----------|---------------||
|-7----7----|-6-----6----|-4----4----|--------------o||
|-----------|----6-------|-----------|-2--2--2--2---o||
|-----------|------------|-----------|---------------||


  2.
  Q  Q  Q  Q    Q  Q  Q  Q    Q  Q  Q  Q
|-------------|-------------|-------------||
|-------------|-------------|-------------||
|-2--2--2--2--|-2--2--2--2--|-2--2--2--2--||
|-------------|-------------|-------------||


  Q  Q  Q  Q     Q  Q  Q  Q    Q  Q  Q  Q
|-------------||-------------|-------------||
|-------------||-------------|-------------||
|-3--3--3--3--||-4--4--4--4--|-4--4--4--4--||
|-------------||-------------|-------------||


   Out-Chorus
    H    H      Q  Q  H      H    H      H    H
||------------|------------|-----------|-----------|
||o-----------|------------|-----------|-1----1----|
||o-2----2----|-1-----1----|------1----|-----------|
||------------|----1-------|-4---------|-----------|


  H    H      Q  Q  H      H    H      Q  Q  Q  Q   3x
|-----------|------------|-----------|--------------||
|-----------|------------|-----------|-------------o||
|-2----2----|-1-----1----|-----------|-4--4--4--4--o||
|-----------|----1-------|-4----4----|--------------||


Duration Legend
---------------
W - whole; H - half; Q - quarter; E - 8th; S - 16th; T - 32nd; X - 64th; a - acciaccatura
+ - note tied to previous; . - note dotted; .. - note double dotted
Uncapitalized letters represent notes that are staccato (1/2 duration)
Irregular groupings are notated above the duration line
Duration letters will always appear directly above the note/fret number it represents the
duration for.  Duration letters with no fret number below them represent rests.  Multi-
bar rests are notated in the form Wxn, where n is the number of bars to rest for.  Low
melody durations appear below the staff

Tablature Legend
----------------
 h   - hammer-on
 p   - pull-off
 b   - bend
 pb  - pre-bend
 r   - bend release (if no number after the r, then release immediately)
 /\  - slide into or out of (from/to "nowhere")
 s   - legato slide
 S   - shift slide
  - natural harmonic
[n]  - artificial harmonic
n(n) - tapped harmonic
 ~   - vibrato
 tr  - trill
 T   - tap
 TP  - trem. picking
 PM  - palm muting
\n/  - tremolo bar dip; n = amount to dip
 \n  - tremolo bar down
 n/  - tremolo bar up
/n\  - tremolo bar inverted dip
 =   - hold bend; also acts as connecting device for hammers/pulls
 <>  - volume swell (louder/softer)
 x   - on rhythm slash represents muted slash
 o   - on rhythm slash represents single note slash

Misc Legend
-----------
 |  - bar
||  - double bar
||o - repeat start
o|| - repeat end
*|  - double bar (ending)
 :  - bar (freetime)
 $  - Segno
 &  - Coda
Tempo markers -  = BPM(8/16=s8/s16), where s8 = swing 8ths, s16 = swing 16ths


First I rise, then I fall
Seems like you don't want
The love of this man at all
And it's sure been a lonely time
Right up to the time I met you
So if you take a love like mine

Ooo, be tender with my love
You know how easy it is to hurt me
Fanny, be tender with my love
Cause it's all that I've got
And my love won't desert me

So you say to yourself, boy
You're out of your brain
Do you think I'm gonna stand here
All night in the rain
And it's the start of a love affair
The moment when I first met you
And if you want I'll take you there

Ooo, be tender with my love
You know how easy it is to break me
Fanny, be tender with my love
Cause it's all that I've got
And my love won't forsake me

With my love, our love
Will seal it together
Ooo, with our love, you made a promise
You'll always love me forever

Be tender with my love
You know how easy it is to break me
Fanny, be tender with my love
Cause it's all that I've got
And my love won't forsake me

Be tender with my love
You know how easy it is to break me
Fanny, be tender with my love
Cause it's all that I've got
And my love won't forsake me

Be tender with my love
You know how easy it is to hurt me
Fanny, be tender with my love
Cause it's all that I've got
And my love won't desert me

Be tender with my love
You know how easy it is to break me
Fanny, be tender with my love
Cause it's all that I've got
And my love won't forsake me....(fade)

            
            
Suggest correction
Creating personal tab
Creating personal tab
You can edit any tab online and save it as your Personal.

You can edit, replace or remove any tab part or add personal notes – all changes will be seen only by you.

Personal tabs can be accessed anytime from any device, even offline.
Learn more »
Give kudos to tab author, rate the tab!
1 2 3 4 5
comments
print report bad tab
guest
You may want to rate the tab now too:
select rating
Wanna post a correction for this tab? Suggest correction