Oops, an error
Loading. Please wait.

More Than A Woman Bass Tab

version 1
version 1

Whole song

Interactive

2,134 views 3 this week
no commentswrite comment
1 2 3 4 5
please rate
add to favorites
launch autoscroll
font size
0
reset
guitar tuner
Autoscroll
slow
fast
+/-
esc
set tempo
stop
Help us to improve Ultimate-Guitar.com Take our survey!
×
Author
-----------------------------------------------------------------------------
                        MORE THAN A WOMAN - Bee Gees
-----------------------------------------------------------------------------

Tabbed by: Matt Broback
E-mail: 37hambone@gmail.com

Tuning: E A D G

. = staccato note

INTRO 

|----------5-----|------5---------|----------------|----------------|
|------5-------5-|----5-----5-5---|------4---999-9-|9-----999-9---9-|
|3---------------|3-------------3-|2---------------|----------------|
|----------------|----------------|----------------|----------------|


VERSE 1
     .                .
|----9-----------|----9-----------|----.-----------|----------------|
|----------------|----------------|----9-----------|----------------|
|7-----7---------|7-----7-------7-|------------7h97|----------------|
|----------7---7-|----------7-----|7-----7-7-------|7-----7-7-----7-|

     .                .   .
|----9-----------|----9---9-9-9/11-9-|----------------|----------------|
|----------------|-------------------|---99---9-------|----9---9-------|
|7-----7-7-------|7-----7------------|--------------9-|----------------|
|--------------7-|-------------------|7-----7---------|7-----7---7-7-5-|


PRECHORUS 1
                      .
|----.-----------|----7-----------|----------------|----------------|
|----5-------7---|----------------|----5-------7-7-|4-----444-444---|
|----------------|5-----5-2---2-2-|----------------|----------------|
|3-----4-5-----5-|----------------|3-----4-5-------|----------------|

                                       
|----.-----------|----------------|--------5---5---|--------5---------|
|----5-------7---|----------------|----------------|----------5-5-3h5-|
|----------------|5---4---2---2-2-|3-----33--3-----|3-----33----------|
|3-----3-5-----5-|----------------|--------------3-|------------------|


|--------5---5---|--------4---4---|4---------------|
|----------------|----------------|----------------|
|3-----33--3---3-|2-----22--2---2-|--------------2-|
|----------------|----------------|----------------|


CHORUS 1

|--------5---5---|----------------|----------------|----------------|
|----------5---5-|----------------|--------5---5---|--------7-------|
|3-----33--------|3-----333-2-0---|----------------|----------5/7-2-|
|----------------|----------------|3-----33--3---4-|5-----55--------|


|----------------|----------------|----------------|--------2---2---|
|----------------|----------------|----5---5-------|----------------|
|3-----333-3-3---|3-----333-2-0---|----------------|------00--0---2-|
|--------------3-|----------------|3-----33----3-4-|5---------------|


|-----------------|--------5---5---|----------------|------------------|
|-----------5-3h5-|----------------|------999-999-9-|9-----999-9---7h9-|
|3-----333--------|3-----33--3---3-|2---------------|------------------|
|-----------------|----------------|----------------|------------------|


VERSE 2

|----------------|--9-------------|----16-----------|------------------|
|--------9---9---|--------9-------|---------9---9---|--------9--99-7h9-|
|7---------------|7-------------7-|9----------------|------9-----------|
|------7---7---7-|------77--7-----|-------77--7---7-|7-----------------|


|----9---9---9---|----9---9-------|----------------|----------------|
|----------------|----------------|--------9---9---|--------9-------|
|7-----77--7-----|7-77--7-----7-8-|9---------------|9---------------|
|--------------7-|----------7-----|------77--7---7-|------7---7-7-5-|


PRECHORUS 2

|----------------|----------------|----------------|----------------|
|----------------|----------------|5---5-5-7---7-7-|4-----444-------|
|----------------|5---4---2---2-2-|----------------|----------4-----|
|3---3-4-5---5-5-|----------------|----------------|------------2---|


|----------------|----------------|--------5---5---|--------5-------|
|----5-------7---|----------------|----------------|------------5---|
|----------------|5---4---2---2-2-|3-----33--------|3-----33--------|
|3-----3-5-----5-|----------------|----------3---3-|----------3---3-|


|----5---5-------|--44----4---4---|4---------------|
|----------------|----------------|----------------|
|3-----33----3---|2-----2---2---2-|--------------2-|
|----------3-----|----------------|----------------|


OUTRO CHORUS

|--------5---5---|----5---5-------|----------------|--------2---2---|
|----------5---5-|----------------|--------5---5---|----------------|
|3-----33--------|3-----33--3-2-0-|----------------|------00--0---2-|
|----------------|----------------|3-----33--3---4-|5---------------|

                          
|--------5---5---|--------5-------|----------------|--------2---2---|
|----------------|----------------|--------5---5---|----------------|
|3-----33--3-----|3-----33--2-0---|----------------|------00--0---2-|
|--------------35|----------------|3-----33--3---4-|5---------------|


|--------5---5---|--------5---5---|--------5---5---|--------4---4---|
|----------------|----------------|----------------|----------------|
|3-----33--3-----|3-----33--3---3-|3-----33--3---2-|2-----22--2---2-|
|--------------3-|----------------|----------------|----------------|


|----------------|--------5---5---|----------------|----------------|
|----------------|----------------|----------------|----------------|
|2-------------2-|3-----33--3-----|3-----333-2-0---|----------------|
|----------------|--------------35|----------------|3-----3-3-----4-|


|------------------|--------5---5---|----------------|----------------|
|------------7-7---|----------------|----------------|--------5---5---|
|------5h7---------|3-----33--3-----|3-----2-2---0---|----------------|
|5-----------------|--------------3-|----------------|3-----33--3---4-|


|--------2---2---|--------5---5----|----------------|----------------|
|----------------|-----------------|----------------|--------5---5---|
|------00--0---0-|3-----33--3------|3-----333-3-2-0-|----------------|
|5---------------|--------------3/5|----------------|3-----33--3---4-|


|-------------------|--------5---5---|----------------|-----------------|
|:------------7-----|----------------|----------------|--------5---5---:|
|:------5/7-------7-|3-----33--3-----|3-----2-2---0---|----------------:|
|-5-----------------|--------------35|----------------|3-----33--3---4--|
Suggest correction
Give kudos to tab author, rate the tab!
1 2 3 4 5
comments
print report bad tab
guest
You may want to rate the tab now too:
select rating
Wanna post a correction for this tab? Suggest correction