Oops, an error
Loading. Please wait.

Stayin Alive Bass

version 2
version 2

Whole song

Interactive

45,831 views 279 this week
6 commentsread comments
1 2 3 4 5
x 29
add to favorites
launch autoscroll
font size
0
reset
guitar tuner
backing track
0:00
0:00
×
Best way to learn
"Stayin Alive"
Autoscroll
slow
fast
+/-
esc
set tempo
stop
Author
Difficulty
novice
I dont even like the Bee Gees. I just love the riff.

[Main riff]
G|-----------------------------------------------|
D|-------6-------------------------------------6-|
A|-6h8-----8--6-------6---------6-------6--8-----|
E|---------------6--8-------6--8----6------------|

[Chorus]
G|-----------------------------------------------|
D|-----------------------------------------------|
A|-----------------------------------------------|
E|----6----6-----6-------------------------------|
Suggest correction
comments
print report bad tab
6 comments total. Showing first comments.
0 reply
Bass-or-Nothing 133 Apr 24, 2009 01:03 PM

it should be 7's and 9's. play with the song. you'll hear that wit 6's and 8's it sounds flat. Otherwise perfect

0 reply
Bass-or-Nothing 133 Apr 24, 2009 01:40 PM

well for standard tuning anyway

+2 reply
itsmemagrojr 10 Feb 21, 2010 12:00 PM

you're 100% wrong bass or nothing. check your tuning.

guest
You may want to rate the tab now too:
select rating
Wanna post a correction for this tab? Suggest correction