Oops, an error
Loading. Please wait.

Stayin Alive Bass Tab

version 2
version 2

Whole song

Interactive

89,528 views 246 this week
3 commentsread comments
1 2 3 4 5
accurate
x 25
add to favorites
launch autoscroll
font size
0
reset
guitar tuner
Tab Pro tools
  • play this tab
  • loop segment
  • change instrument
  • show fretboard
  • metronome
Autoscroll
slow
fast
+/-
esc
set tempo
stop
Contributor
Difficulty
intermediate
Stayin' Alive - Bee Gees

Tabbed By : Stumaster18
e-mail: ???

Tuning: standard.

G|-----------------------------------|
D|------6--------------------------6-|
A|-66-8---6-6-----6------6-----6-8---|
E|------------6h8---66-8---6-8-------|

G|---------------|
D|---------------|
A|---------------|
E|-6~-6h8-6~-6h8-|
comments
print report bad tab
3 comments total.
-2 reply
Flea_Metallica wrote on December 24 2005, 04:04 pm

See Im not always mean.

+2 reply
spinnaker wrote on November 4 2007, 01:38 am

As with version 1, it could be better. Okay as long as you can figure out where to place the notes in the rhythm.

0 reply
natfunk71 wrote on May 4 2013, 10:24 am

G|-----------------------------------|
D|-------------------------------6---|
A|-6h8---8----6h8-----------6 8------|
E|----------------------6-8----------|

The recording is tuned about 40 cents sharp.

I want to post or [tab]
guest
You may want to rate the tab now too:
select rating
Please do not post tabs as comments. Select "correction" instead!