Oops, an error
Loading. Please wait.

Stayin Alive Bass Tab

version 2
version 2

Whole song

Interactive

100,952 views 270 this week
3 commentsread comments
1 2 3 4 5
x 29
add to favorites
launch autoscroll
font size
0
reset
guitar tuner
Autoscroll
slow
fast
+/-
esc
set tempo
stop
Help us to improve Ultimate-Guitar.com Take our survey!
×
Author
Difficulty
intermediate
Stayin' Alive - Bee Gees
Tuning: standard.
Tabbed By : Stumaster18


[Main riff]

G|-------------------------------------|
D|-------6---------------------------6-|
A|-6-6-8---6-6-----6-------6-----6-8---|
E|-------------6h8---6-6-8---6-8-------|

G|----------------|
D|----------------|
A|----------------|
E|-6-~-6h8-6~-6h8-|



************************************

| h  Hammer-on
| ~  Vibrato

************************************
Suggest correction
comments
print report bad tab
3 comments total.
-2 reply
Flea_Metallica 30 Dec 24, 2005 04:04 PM

See Im not always mean.

+2 reply
spinnaker 10 Nov 04, 2007 01:38 AM

As with version 1, it could be better. Okay as long as you can figure out where to place the notes in the rhythm.

0 reply
natfunk71 12 May 04, 2013 10:24 AM

G|-----------------------------------|
D|-------------------------------6---|
A|-6h8---8----6h8-----------6 8------|
E|----------------------6-8----------|

The recording is tuned about 40 cents sharp.

guest
You may want to rate the tab now too:
select rating
Wanna post a correction for this tab? Suggest correction