Oops, an error
Loading. Please wait.
We have an official Stayin Alive tab made by UG professional guitarists. Check out the tab »
×

Stayin Alive bass

676 views 111 this week
1 commentread comment
1 2 3 4 5
x 4
add to favorites
×
Save as Personal and add changes to this tab that will be seen only by you. Learn more ›
×
You can save this tab as Personal to edit and correct it or add notes. All changes will be seen only by you. Learn more »
launch autoscroll
font size
0
reset
guitar tuner
backing track
0:00
0:00
edit
Autoscroll
slow
fast
+/-
esc
set tempo
stop
Author
Difficulty
About this tab version
The actual bass part. Not the guitar. THE BASS. Was this info helpful? Yes No
Artist : Bee Gees
Album : Saturday Night Fever
Song : Stayin' Alive


[Intro]
G|--------------------------------|----------------------------1---|
D|1h3-r---------------------------|--------------------1---3-------|
A|--------------------------------|------------1---3---------------|
E|----------------1---r-----------|1---r---------------------------|
  1   +   2   +   3   +   4   +    1   +   2   +   3   +   4   +    

G|----3r--------------------1-r---|----3r--------------------------|
D|------------------------3-----3-|--------------------1---1---1---|
A|1-------------------------------|1-------------------------------|
E|--------------------------------|--------------------------------|
  1   +   2   +   3   +   4   +    1   +   2   +   3   +   4   +    

[Verse]
G|--------------------------------|----------------------------1---|
D|1h3-r---------------------------|--------------------1---3-------|
A|--------------------------------|------------1---3---------------|
E|----------------1---r-----------|1---r---------------------------|
  1   +   2   +   3   +   4   +    1   +   2   +   3   +   4   +    

G|--------------------------------|----------------------------1---|
D|1h3-r---------------------------|1---r---------------1---3-------|
A|--------------------------------|------------1---3---------------| (x2)
E|----------------1---r-----------|--------------------------------|
  1   +   2   +   3   +   4   +    1   +   2   +   3   +   4   +    

 [Pre-Chorus]
G|------------3-------------------|3-------------------------------|
D|--------------3-----------------|--------------------------------|
A|1---------------1---------------|----------------------------0---|
E|--------------------------------|------------------x-1---4-------|
  1   +   2   +   3   +   4   +    1   +   2   +   3   +   4   +    

G|--------------------------------|3-------------------------------|
D|------------------------------3-|----------------------------1---|
A|1-------------x-1---------------|------------------x-1---3-------|
E|--------------------------------|--------------------------------|
  1   +   2   +   3   +   4   +    1   +   2   +   3   +   4   +    

[Chorus]
G|----1---r-----------------------|--------------------------------|
D|1h3---------3---r---1---r-------|------------3---r-----------1---|
A|----------------------------3--r|--------3-----------1---3-------| (x3)
E|--------------------------------|--------------------------------|
  1   +   2   +   3   +   4   +    1   +   2   +   3   +   4   +    

G|-----1--r-----------------------|--------------------------------|
D|1h3---------3---r---1-----------|3-------------------------------|
A|------------------------r---3---|--------------------------------|
E|--------------------------------|--------------------------------|
  1   +   2   +   3   +   4   +    1   +   2   +   3   +   4   +    

G|--------------------------------|--------------------------------|--------------------------------|
D|--------------------------------|--------------------------------|--------------------------------|
A|--------------------------------|--------------------------------|3-----------------------1---3---|
E|--------------------------------|--------------------------------|------------------x-3-----------|
  1   +   2   +   3   +   4   +    1   +   2   +   3   +   4   +    1   +   2   +   3   +   4   +    


[Verse]
G|--------------------------------|----------------------------1---|
D|1h3-r---------------------------|3---r---------------1---3-------|
A|--------------------------------|------------1---3---------------|
E|----------------1---r-----------|--------------------------------|
  1   +   2   +   3   +   4   +    1   +   2   +   3   +   4   +    

G|--------------------------------|----------------------------1---|
D|1h3-r---------------------------|1---r---------------1---3-------|
A|--------------------------------|------------1---3---------------| (x2)
E|----------------1---r-----------|--------------------------------|
  1   +   2   +   3   +   4   +    1   +   2   +   3   +   4   +    
 

 [Pre-Chorus]
G|------------3-------------------|3-------------------------------|
D|--------------3-----------------|--------------------------------|
A|1---------------1---------------|----------------------------0---|
E|--------------------------------|------------------x-1---4-------|
  1   +   2   +   3   +   4   +    1   +   2   +   3   +   4   +    

G|--------------------------------|3-------------------------------|
D|------------------------------3-|----------------------------1---|
A|1-------------x-1---------------|------------------x-1---3-------|
E|--------------------------------|--------------------------------|
  1   +   2   +   3   +   4   +    1   +   2   +   3   +   4   +    


[Chorus]
G|----1---r-----------------------|--------------------------------|
D|1h3---------3---r---1---r-------|------------3---r-----------1---|
A|----------------------------3--r|--------3-----------1---3-------| (x3)
E|--------------------------------|--------------------------------|
  1   +   2   +   3   +   4   +    1   +   2   +   3   +   4   +    

G|-----1--r-----------------------|--------------------------------|
D|1h3---------3---r---1-----------|3-------------------------------|
A|------------------------r---3---|--------------------------------|
E|--------------------------------|--------------------------------|
  1   +   2   +   3   +   4   +    1   +   2   +   3   +   4   +    

G|--------------------------------|--------------------------------|--------------------------------|
D|--------------------------------|--------------------------------|--------------------------------|
A|--------------------------------|--------------------------------|3-----------------------1---3---|
E|--------------------------------|--------------------------------|------------------x-3-----------|
  1   +   2   +   3   +   4   +    1   +   2   +   3   +   4   +    1   +   2   +   3   +   4   +    

[Bridge]
G|--------------------------------|----------------------------1---|
D|1h3-r---------------------------|--------------------1---3-------|
A|--------------------------------|------------1---3---------------|-----------------------------------|
E|----------------1---r-----------|1---r---------------------------|                                   |
  1   +   2   +   3   +   4   +    1   +   2   +   3   +   4   +                                       |
                                                                                                       | (x2)
G|----3r--------------------1-r---|----3r--------------------------|----3r--------------------------|  |
D|------------------------3-----3-|--------------------------------|----------------------------1---|--|
A|1-------------------------------|1---------------------------3---|1-----------------x-1---3-------|
E|--------------------------------|------------------x-1---4-------|--------------------------------|
  1   +   2   +   3   +   4   +    1   +   2   +   3   +   4   +    1   +   2   +   3   +   4   +    


[Verse]
G|--------------------------------|----------------------------1---|
D|1h3-r---------------------------|3---r---------------1---3-------|
A|--------------------------------|------------1---3---------------|
E|----------------1---r-----------|--------------------------------|
  1   +   2   +   3   +   4   +    1   +   2   +   3   +   4   +    

G|--------------------------------|----------------------------1---|
D|1h3-r---------------------------|1---r---------------1---3-------|
A|--------------------------------|------------1---3---------------| (x2)
E|----------------1---r-----------|--------------------------------|
  1   +   2   +   3   +   4   +    1   +   2   +   3   +   4   +    
 
 [Pre-Chorus]
G|------------3-------------------|3-------------------------------|
D|--------------3-----------------|--------------------------------|
A|1---------------1---------------|----------------------------0---|
E|--------------------------------|------------------x-1---4-------|
  1   +   2   +   3   +   4   +    1   +   2   +   3   +   4   +    

G|------------3-------------------|3-------------------------------|
D|--------------3-----------------|----------------------------1---|
A|1---------------1---------------|------------------x-1---3-------|
E|--------------------------------|--------------------------------|
  1   +   2   +   3   +   4   +    1   +   2   +   3   +   4   +    

[Chorus]
G|----1---r-----------------------|--------------------------------|
D|1h3---------3---r---1---r-------|------------3---r-----------1---|
A|----------------------------3--r|--------3-----------1---3-------| (x3)
E|--------------------------------|--------------------------------|
  1   +   2   +   3   +   4   +    1   +   2   +   3   +   4   +    

G|-----1--r-----------------------|--------------------------------|
D|1h3---------3---r---1-----------|3-------------------------------|
A|------------------------r---3---|--------------------------------|
E|--------------------------------|--------------------------------|
  1   +   2   +   3   +   4   +    1   +   2   +   3   +   4   +    

G|--------------------------------|--------------------------------|--------------------------------|
D|--------------------------------|--------------------------------|--------------------------------|
A|--------------------------------|--------------------------------|3-----------------------1---3---|
E|--------------------------------|--------------------------------|------------------x-3-----------|
  1   +   2   +   3   +   4   +    1   +   2   +   3   +   4   +    1   +   2   +   3   +   4   +    

[Outro]
G|--------------------------------|----------------------------1---|
D|1h3-r---------------------------|--------------------1---3-------|
A|--------------------------------|------------1---3---------------|
E|----------------1---r-----------|1---r---------------------------|
  1   +   2   +   3   +   4   +    1   +   2   +   3   +   4   +    

G|----3r--------------------1-r---|----3r--------------------------|----3r--------------------------|
D|------------------------3-----3-|--------------------------------|----------------------------1---|
A|1-------------------------------|1---------------------------3---|1-----------------x-1---3-------|
E|--------------------------------|------------------x-1---4-------|--------------------------------|
  1   +   2   +   3   +   4   +    1   +   2   +   3   +   4   +    1   +   2   +   3   +   4   +    

G|--------------------------------|----------------------------1---|
D|1h3-r---------------------------|--------------------1---3-------|
A|--------------------------------|------------1---3---------------|
E|----------------1---r-----------|1---r---------------------------|
  1   +   2   +   3   +   4   +    1   +   2   +   3   +   4   +    

G|----3r--------------------1-r---|----3r------1---r---------------|
D|------------------------3-----3-|--------------------1---3---1---|
A|1-------------------------------|1-------------------------------|
E|--------------------------------|--------------------------------|
  1   +   2   +   3   +   4   +    1   +   2   +   3   +   4   +    

G|--------------------------------|----------------------------1---|
D|1h3-r---------------------------|--------------------1---3-------|
A|--------------------------------|------------1---3---------------| Repeat the outro & fade out
E|----------------1---r-----------|1---r---------------------------|
  1   +   2   +   3   +   4   +    1   +   2   +   3   +   4   +    
 


************************************

| x   Dead note
| h   Hammer-on
| r   Release

************************************

            
            
Suggest correction
Creating personal tab
Creating personal tab
You can edit any tab online and save it as your Personal.

You can edit, replace or remove any tab part or add personal notes – all changes will be seen only by you.

Personal tabs can be accessed anytime from any device, even offline.
Learn more »
comments
print report bad tab
1 comment total.
+2 reply
steelbear 12 May 01, 2017 04:55 AM

Fair play for doing the actual bass part (not just the riff played on guitar)

guest
You may want to rate the tab now too:
select rating
Wanna post a correction for this tab? Suggest correction