Oops, an error
Loading. Please wait.

Turn Of The Century chords

595 views 3 this week
no commentswrite comment
1 2 3 4 5
1 last vote to show rating
add to favorites
×
Save as Personal and add changes to this tab that will be seen only by you. Learn more ›
×
You can save this tab as Personal to edit and correct it or add notes. All changes will be seen only by you. Learn more »
launch autoscroll
font size
0
reset
transpose
0
reset
simplify chords
display chords
guitar tuner
edit
Autoscroll
slow
fast
+/-
esc
set tempo
stop
Author
Difficulty
maguri [tm] 32,104
intermediate
Strumming
There is no strumming pattern for this song yet. and get +5 IQ
---------------------------------------------------------------------------
			 Turn of the Century – Bee Gees
---------------------------------------------------------------------------
Tabbed by: maguri
Tuning: Standard


Bee Gees
Turn of the Century 
(Barry Gibb/Robin Gibb)

From: Bee Gees 1st (1967)

---------------------------------------------------------------------------

INTRO (semi-baroque woodwind)

  1 + 2 + 3 + 4 +  1 + 2 + 3 + 4 +  1 + 2 + 3 + 4 +  1 + 2 + 3 + 4 +
  Am      Am/G     Am/F     Am/E    E/D     E/C     E/B      E
e|----------------|----5-----------|---------------|----------------|
B|----------------|------------5---|3-5-6----------|----6----5553---|
G|----2-4-5-4—2---|----------------|-----------4---|----------------|
D|----------------|----------------|---------------|----------------|
A|----------------|----------------|---------------|----------------|
E|----------------|----------------|---------------|----------------|

  1 + 2 + 3 + 4 +  1 + 2 + 3 + 4 +  1 + 2 + 3 + 4 +  1 + 2 + 3 + 4 +
  Am      Am/G     Am/F    Am/E     E/D     E/C      E/B     E
e|----------------|----------------|----4-----------|---------------|
B|----------------|------------5---|------------5---|---------------|
G|----2-4-5-4—2---|--4-5-4-5-------|4---------------|----4----------|
D|----------------|----------------|----------------|---------------|
A|----------------|----------------|----------------|---------------|
E|----------------|----------------|----------------|---------------|

LINK (brass)
  1 + 2 + 3 + 4 +  1 + 2 + 3 + 4 +  1 + 2 + 3 + 4 +  1 + 2 + 3 + 4 +-
  Bb               A                D               Bm
e|----------------|----------------|----------------|----------------|
B|----3-5-6-5-3---|----2-3-5-3-2---|3---------------|----------------|
G|--------------—-|----------------|--------------2-|4---------------|
D|----------------|----------------|----------------|--------------4-|
A|----------------|----------------|----------------|----------------|
E|----------------|----------------|----------------|----------------|
  1 + 2 + 3 + 4 +  1 + 2 + 3 + 4 +  1 + 2 + 3 + 4 +  1 + 2 + 3 + 4 +
  Em               F#               E               F#
e|----------------|----------------|--------2-------|---------------|
B|----------------|----------------|----------------|---------------|
G|----------------|3---------------|----4-4---------|---------------|
D|5-------------5-|----------------|----------------|---------------|
A|----------------|----------------|----------------|---------------|
E|----------------|----------------|----------------|---------------|

OUTRO (brass)
  1 + 2 + 3 + 4 +  1 + 2 + 3 + 4 +  1 + 2 + 3 + 4 +  1 + 2 + 3 + 4 +
  C                H                E               Bm
e|----------------|----------------|----------------|---------------|
B|----5-7-8-7-5---|----4-5-7-5-4---|5---------------|---------------|
G|--------------—-|----------------|--------------4-|6--------------|
D|----------------|----------------|----------------|-------------6-|
A|----------------|----------------|----------------|---------------|
E|----------------|----------------|----------------|---------------|
  1 + 2 + 3 + 4 +  1 + 2 + 3 + 4 +  1
  Em               F#               C#                
e|----------------|----------------|-
B|----------------|----------------|-
G|----------------|5---------------|6
D|7-------------7-|----------------|-
A|----------------|----------------|-
E|----------------|----------------|-

---------------------------------------------------------------------------

CHORDS

      E-A-D-G-B-e
Am    x-x-x-2-1-0
Am/G  x-x-x-0-1-0
Am/F  x-x-3-2-1-0
Am/E  x-x-2-2-1-0

E/D   x-x-0-1-0-0
E/C   x-3-x-1-0-0
E/B   x-2-x-1-0-0
E     x-x-2-1-0-0

G     3-x-0-0-3-3
G/A   x-0-0-0-3-3
G/B   x-2-0-0-3-3

Bm    x-2-4-4-3-x
Bm/A  x-0-4-4-3-x
Bm/G  3-x-4-4-3-x
Bm/F# 2-x-4-4-3-x

F#/E  x-x-2-3-2-2
F#/D  x-x-0-3-2-2
F#/C# x-4-x-3-2-2
F#    x-x-4-3-2-2

A/B   x-2-2-2-2-0
A/C#  x-4-2-2-2(0)

---------------------------------------------------------------------------

INTRO (see above)
| Am Am/G | Am/F Am/E | E/D E/C | E/B  E |
| Am Am/G | Am/F Am/E | E/D E/C | E/B  E |


VERSE
Am           Am/G 
Ev'rything's happening 
Am/F    Am/E        E/D       E/C     E/B      E
 At the turn of the century 
          Am           Am/G    Am/F   
I'm gonna buy myself a time machine 
          Am/E        G      G/A    G/B
Go to the turn of the century 


BRIDGE
    G         C              Am
And all those people passing by 
        Bb                   G
And the town crier makes his cry 


CHORUS
       C            Am
At the  turn of the century, 
C             Am
  Turn of the century 


VERSE
Am                Am/G 
Big wide hats and men in spats 
Am/F    Am/E        E/D       E/C     E/B      E
 At the turn of the century 
           Am        Am/G        Am/F   
With those horseless carriages 
       Am/E        G      G/A   G/B 
At the turn of the century 


BRIDGE
    G         C                 Am
And there are lots of things to do 
     Bb                G
On a bicycle built for two 


CHORUS
       C             Am
At the   turn of the century, 
C             Am
Turn of the century 


LINK (see above)
| Bb | A | D | Bm | Em | F# | E | F# | F# |


VERSE (one tone up)
Bm            Bm/A
Ev'rything's happening 
Bm/G    Bm/F#       F#/E   F#/D   F#/C#   F#
 At the turn of the century 
          Bm           Bm/A    Bm/G   
I'm gonna buy myself a time machine 
          Bm/F#       A      A/B    A/C#
Go to the turn of the century 


BRIDGE (one tone up)
    A         D              Bm
And all those people passing by 
         C                   A
And the town crier makes his cry 


CHORUS
       D             Bm
At the   turn of the century, 
D             Bm
  Turn of the century 


CODA
D             G
  Turn of the century


OUTRO (see above)
| C | B | E | C#m | F#m | G# | C#

            
            
Suggest correction
Creating personal tab
Creating personal tab
You can edit any tab online and save it as your Personal.

You can edit, replace or remove any tab part or add personal notes – all changes will be seen only by you.

Personal tabs can be accessed anytime from any device, even offline.
Learn more »
Give kudos to tab author, rate the tab!
1 2 3 4 5
comments
print report bad tab
guest
You may want to rate the tab now too:
select rating
Wanna post a correction for this tab? Suggest correction