Oops, an error
Loading. Please wait.
We have an official You Should Be Dancing tab made by UG professional guitarists. Check out the tab »
×
7,717 views 24 this week
no commentswrite comment
1 2 3 4 5
x 4
add to favorites
×
Save as Personal and add changes to this tab that will be seen only by you. Learn more ›
×
You can save this tab as Personal to edit and correct it or add notes. All changes will be seen only by you. Learn more »
launch autoscroll
font size
0
reset
guitar tuner
backing track
0:00
0:00
edit
Autoscroll
slow
fast
+/-
esc
set tempo
stop
Author
YOU SHOULD BE DANCING – Bee Gees
Tabbed by: WibbleWobble
E-mail: organisedchaos@talktalk.net
US number 1 and UK number 5 in 1976
Tuning: standard EADG

[Intro]
(00:00-00:15)
G|---------------------------------------------------------------3-3-3-----|
D|-------------------------------------------------------3-4-5----------3-5|
A|---------------------------------------------------5---------------------|
E|-3-3-3-3-3-3-3-3-3-3-3-3-3-3-3-3-3-3-3-3---------------------------------|

G|-----------------------------3-3-3---------------------------------------|
D|-3-4-5--------------3-4-5-----------3-5-3-4-5----------------------------|
A|-------------------------------------------------------------------------|
E|-----------3-3-3------------------------------------3-3-3----------------|

(1st verse and run up to chorus)(00:16-00:38)
G|-------------------------------------------------------------------------|
D|-------------------------0-------------------------0---------------------|
A|----------------3-1-3----------------------3-1-3-------------------------|
E|-3-3-3-3-3-3--------------3-3-3-3-3-3-----------------3-3-3-3-3-3--------|

G|--------------------------------------------5-5-4--4-3--3-4--4-5--5-4----|
D|-------------------------------------------------------------------------|
A|-----3-----3-5-----------------------------------------------------------|
E|-3------6-----------3-3-3-3-3-3-3-3--------------------------------------|

G|-4-3---3-4---------------------------------------------------------------|
D|-------------------------------------------------------------------------|
A|-------------------------------------------------------------------------|
E|-------------------------------------------------------------------------|

[Chorus](00:39-00:46)
G|---------3-3-3-----------------------------------------------------------|
D|-3-4-5---------3-5-3-4-5-------------------------------------------------|
A|-------------------------------------------------------------------------|
E|------------------------------3-3-3--------------------------------------|

(2nd verse and run up to chorus)(00:47-01:09)
G|-------------------------------------------------------------------------|
D|-------------------------0--------------------------0--------------------|
A|----------------3-1-3---------------------3-1-3--------------------------|
E|-3-3-3-3-3-3--------------3-3-3-3-3-3-----------------3-3-3-3-3-3--------|

G|--------------------------------------------5-5-4--4-3--3-4--4-5--5-4----|
D|-------------------------------------------------------------------------|
A|-----3-----3-5-----------------------------------------------------------|
E|-3------6-----------3-3-3-3-3-3-3-3--------------------------------------|

[2nd Chorus](01:10-01:33)
G|---------3-3-3-------------------------------3-3-3-----------------------|
D|-3-4-5---------3-5-3-4-5-----------3-4-5-----------3-5-3-4-5-------------|
A|-------------------------------------------------------------------------|
E|------------------------------3-3-3-------------------------------3-3-3--|

G|-5-5-4-4-3-3-4-4-5-5-4-4-3-3-4-----------3-3-3---------------------------|
D|-----------------------------------3-4-5---------3-5-3-4-5---------------|
A|-------------------------------------------------------------------------|
E|----------------------------------------------------------------------3-3|

G|--------------3-3-3------------------------------------------------------|
D|------3-4-5----------3-5-3-4-5-------------------------------------------|
A|-------------------------------------------------------------------------|
E|-3----------------------------------3-3-3--------------------------------|

[Bridge](01:34-01:58)
G|-------------------------------------------------------------------------|
D|------------------------------------------------------------5-3-3-5---5--|
A|---------------------------------------------------0---------------------|
E|-3-3-3-3-3-3-3-0-1--3-3-3-3-3-3-3-0-1--3-----3---------------------------|

G|-------------------------------------------------------------------------|
D|----------5-3-3-5-5-3----------------------------------------------------|
A|-----0-------------------------------------------------------------------|
E|--3----------------------------------------------------------------------|

(3rd verse repeat as 2nd verse above)
[Repeat 2nd chorus]
(Bass rests for a few bars then plays out to G thing like)
G|-------------------------------------------------------------------------|
D|--5-3---3-4-5---5-3------------------------------------------------------|
A|-------------------------------------------------------------------------|
E|-------------------------------------------------------------------------|

            
            
Suggest correction
Creating personal tab
Creating personal tab
You can edit any tab online and save it as your Personal.

You can edit, replace or remove any tab part or add personal notes – all changes will be seen only by you.

Personal tabs can be accessed anytime from any device, even offline.
Learn more »
comments
print report bad tab
guest
You may want to rate the tab now too:
select rating
Wanna post a correction for this tab? Suggest correction