Oops, an error
Loading. Please wait.

This Is Not An Exit Bass Tab

173 views 3 this week
no commentswrite comment
1 2 3 4 5
2 more votes to show rating
add to favorites
launch autoscroll
font size
0
reset
guitar tuner
Autoscroll
slow
fast
+/-
esc
set tempo
stop
Help us to improve Ultimate-Guitar.com Take our survey!
×
Author
++++++++++++++++++++++++++++++++
| Beecake- This Is Not An Exit |
++++++++++++++++++++++++++++++++


"Just need someone to hold me..."


Tuning: Standard EADG



Chorus
"Im feeling kind of lonely..."
1.
G|-------------------------------------------------|
D|----------------------------------------------7~-|
A|-------3~-2~-0~-0~-3~-2~-------3~-2~-0~-0~-0~----|
E|-3~-3~-------------------3~-3~-------------------|

"We're stuck now on this journey..."
2.
G|-------------------------------------------------------------|
D|----------------------------------------------------------7~-|
A|-------3~-2~-0~-0~-3~-2~-------3~-2~-0~-0~-0~-0~-0~-0~-0~----|
E|-3~-3~-------------------3~-3~-------------------------------|

Verse
"I dreamt of something really..."
3.
G|----------------------------------------------9~-----|
D|-5~-5~-5~-5\7~----------------------------10~----10~-|
A|---------------9~-9~-9~-9~-7~-7~-7~-5~---------------|--x2
E|---------------------------------------8~------------|

Pre-Chorus
"And I've been feeling so lonely..."
4.
G|-9~----9~----------6~----9~----9~----------6~----|
D|----9~----9~----7~----7~----9~----9~----7~----7~-|
A|-------------0~----------------------0~----------|
E|-------------------------------------------------|

"They've built another car park..."
5.
G|-9~----9~----------6~----------------------------|
D|----9~----9~----7~----7~-3~----------------------|
A|-------------0~----------------------------------|
E|-------------------------------------------------|

Chorus
"Im feeling kind of lonely..."
6.
G|-------------------------------------------------|
D|----------------------------------------------7~-|
A|-------3~-2~-0~-0~-3~-2~-------3~-2~-0~-0~-0~----|--x4
E|-3~-3~-------------------3~-3~-------------------|

"Until you're ready..."
7.
G|--------------------------------------------|
D|-3~-3~-3~-3~--------------------------------|
A|-------------0~-0~-0~-0~-0~-0~-0~-0x--------|
E|--------------------------------------------|

Outro
8.
G|----------------------------------------------9~-----|
D|-5~-5~-5~-5\7~----------------------------10~----10~-|
A|---------------9~-9~-9~-9~-7~-7~-7~-5~---------------|--Until fades away
E|---------------------------------------8~------------|


Please rate thank you!


Lyrics:

I've been feeling kind of foolish
There's nothing up but sky
and there's someone making toothpicks for us
one for every tree that has to die

And I've been feeling so lonely
and a wolf sleeps at my door
they've built another car park
cuz God knows we don't need the churches anymore
 
I'm feeling kind of lonely
No emotions for no one
I'm feeling kind of seasick
We're stuck now on this journey
and the plan is on the run
this is not an exit
 
I dreamt of something really
I sank into the mud and grew a head
and a nice man put me on TV
when the audience choose who and when I wed
 
And I've been feeling so lonely
and the wolf sits at my door
and they've built another car park
God knows we don't need the churches anymore
 
I'm feeling kind of lonely
on this journey to nowhere
I'm feeling kind of seasick
Just need someone to hold me
all the people turn and stare
You should all just get to know me
 
Until you let it
 
All is nothing
everything is one
dream your dreams
and know everything will come



+++++++++++++++++++++++++++++++++
| RaiLeff                       |
| Underground__Dora@Hotmail.Com |
+++++++++++++++++++++++++++++++++
Suggest correction
Give kudos to tab author, rate the tab!
1 2 3 4 5
comments
print report bad tab
guest
You may want to rate the tab now too:
select rating
Wanna post a correction for this tab? Suggest correction