Oops, an error
Loading. Please wait.

This Is Not An Exit Tab

1,302 views 1 this week
no commentswrite comment
1 2 3 4 5
3 more votes to show rating
add to favorites
launch autoscroll
font size
0
reset
how to read this tab
guitar tuner
Autoscroll
slow
fast
+/-
esc
set tempo
stop
Help us to improve Ultimate-Guitar.com Take our survey!
×
Author
++++++++++++++++++++++++++++++++
| Beecake- This Is Not An Exit |
++++++++++++++++++++++++++++++++


"Just need someone to hold me..."

Tuning: EADGBe


Chords used in this song:

Em: 022000
F:  133211
G:  320003
A:  x02220
Am: x02210
B:  x24442
C:  x32010 



Intro
1.
e|---------------------------0000-2-0-3-0-3333-2-0-2-0-0-----0---0---0---|
B|-0000-0---0---0---/4---4-------------------------------111---1---1---1-|
G|--------0---0---0-/--4---4---------------------------------------------|
D|-----------------------------------------------------------------------|
A|-----------------------------------------------------------------------|
E|-----------------------------------------------------------------------|


Verse

G                           B
  I've been feeling kind of foolish
Em                       C
  There's nothing up but sky
G                            B
  and there's someone making toothpicks for us
Em                             C
one for every tree that has to die.


Pre-Chorus
"And I've been feeling so lonely..."
2.
e|-3~--2--0---------------------|
B|-----------3--2---2---2---3---|
G|----------------2---2---2---2-|
D|-2---2------------------------|--x3
A|--------4--2--4---4---4---4---|
E|------------------------------|

"We dont need the churches anymore..."
3.
e|---------------------|
B|---------------------|
G|---------------------|
D|---------------------|
A|---------------------|
E|-1-1-1-1-1~----1~----|



Em                          A
   And I've been feeling so lonely
Em                         A
   and a wolf sleeps at my door
Em                          A
   they've built another car park
              F
cuz God knows we don't need the churches anymore


Chorus
"Im feeling kind of lonely..."
4.
e|---------------------------------------------------------0---0---|
B|-0---0---1---3---1---1---1---3---0---0---1---3---1---1-----1---1-|
G|---0---0---0---0---2---2---0---0---0---0---0---0---2---2---------|
D|-----------------------------------------------------------------|--x2
A|-----------------------------------------------------------------|
E|-----------------------------------------------------------------|

5.
e|---------0---0---|
B|-1---1-----1---1-|
G|---2---2---------|
D|-----------------|
A|-----------------|
E|-----------------|


G     C               Am
  I'm feeling kind of lonely
   C
No emotions for no 
G         C               Am
one   I'm feeling kind of seasick
G        C                 Am
   We're stuck now on this journey
        C
and the plan is on the 
G     C              Am
run   this is not an exit


Outro


G - B - Em - C 


Verse


G - B - Em - C


Pre- Chorus


Em - A
Em - A
Em - A
F


Chorus


G - C - Am - C
G - C - Am
G - C - Am - C
G - C - Am 

G - C - Am - C
G - C - Am
G - C - Am - C
G - C - Am 

Bridge
"Until you let it..."
6.
e|----------------------------------------------------------|
B|-1~--1~--0h1~--1~--0h1~--1~--0h1~--1~--0h1~--1~---0h1~----|
G|----------------------------------------------------------|
D|----------------------------------------------------------|
A|----------------------------------------------------------|
E|----------------------------------------------------------|

  F - Am


Outro

G         B
   All is nothing
Em             C
everything is one
G             B
   dream your dreams
         Em               C
and know everything will come


Lyrics:


I've been feeling kind of foolish
There's nothing up but sky
and there's someone making toothpicks for us
one for every tree that has to die

And I've been feeling so lonely
and a wolf sleeps at my door
they've built another car park
cuz God knows we don't need the churches anymore
 
I'm feeling kind of lonely
No emotions for no one
I'm feeling kind of seasick
We're stuck now on this journey
and the plan is on the run
this is not an exit
 
I dreamt of something really
I sank into the mud and grew a head
and a nice man put me on TV
when the audience choose who and when I wed
 
And I've been feeling so lonely
and the wolf sits at my door
and they've built another car park
God knows we don't need the churches anymore
 
I'm feeling kind of lonely
on this journey to nowhere
I'm feeling kind of seasick
Just need someone to hold me
all the people turn and stare
You should all just get to know me
 
Until you let it
 
All is nothing
everything is one
dream your dreams
and know everything will come



+++++++++++++++++++++++++++++++++
| RaiLeff                       |
| Underground__Dora@Hotmail.Com |
+++++++++++++++++++++++++++++++++
Suggest correction
Give kudos to tab author, rate the tab!
1 2 3 4 5
comments
print report bad tab
guest
You may want to rate the tab now too:
select rating
Wanna post a correction for this tab? Suggest correction