Oops, an error
Loading. Please wait.

Heavy Zooo Bass Tab

268 views 1 this week
no commentswrite comment
1 2 3 4 5
3 more votes to show rating
add to favorites
launch autoscroll
font size
0
reset
guitar tuner
Autoscroll
slow
fast
+/-
esc
set tempo
stop
Help us to improve Ultimate-Guitar.com Take our survey!
×
Author
Difficulty
Tuning
intermediate
D A D G B E
Beehoover - Heavy Zooo (Heavy Zooo) (Website: http://www.beehoover.com/)
80 BPM - 4/4
4-string bass - Drop-D tuning (DADG)
Transcribed 100% by ear by Krakenbrau
Please send questions, comments, corrections to krakenbrau@gmail.com.

Legend:                 Timing:
\ - slide/bend down     W - whole note          W. - dotted whole note
/ - slide/bend up       H - half note           H. - dotted half note
b - bend                Q - quarter note        Q. - dotted quarter note
h - hammer-on           E - eighth note         E. - dotted eighth note
p - pull-off            S - sixteenth note      S. - dotted sixteenth note
~ - sustain             N - thirty-second note  N. - dotted thirty-second note
                        ' - thirty-second note triplet (3/S)
                        t - sixteenth note triplet (3/E)
                        T - eighth note triplet (3/Q)
                        T.- quarter note triplet (3/H)

Notes:
I think this is pretty accurate.  The only part I'm not totally sure about is the Bridge 1 section.
Also, please note that the timings indicate the duration of each note; not necessarily the same
as the spacing/time between notes.  I think this song is played with a pick, but I'm just
guessing based on the sound.


Intro Verse - Bass comes in at "RISING".
G|--------------------------| G|-------------------------------------------------|
D|--------------------------| D|-------------------------------------------------| x3
A|--------------------------| A|-------------------------------------------------|
D|-10\\\3///10~~-10-10-10---| D|-11-11-11-11-11-11-11-11-11-11-11-11-11-11-11-11-|
    Q   Q    Q    S  S  S         S  S  S  S  S  S  S  S  S  S  S  S  S  S  S  S

G|--------------------------|
D|--------------------------|
A|--------------------------|
D|-10\\\3///10~~-10-10-10---|
   Q    Q    Q    S  S  S

Chorus 1
G|-------------------------------|--------------------------------|
D|-------------------------------|--------------------------------| x2
A|-------10b/\---------8~-----8~-|-------7\\\---------3h5-----5h7-|
D|-0-0-0-------0-0-0-0----0-0----|-0-0-0------0-0-0-0-----0-0-----|
   S S S  E.   S S S S E  S S E    S S S E.   S S S S S S S S S S

G|-------------------------------|--------------------------------|
D|-------------------------------|--------------------------------| x2
A|-------10\\\---------8---------|-------7\\\---------3h5-----5h7-|
D|-0-0-0-------0-0-0-0-----------|-0-0-0------0-0-0-0-----0-0-----|
   S S S  E.   S S S S S           S S S E.   S S S S S S S S S S

G|-------------------------------|----------------------------|
D|-------------------------------|----------------------------| x2
A|-------10\\\---------3---------|-------7\\\-----------3~-5~-|
D|-0-0-0-------0-0-0-0-----------|-0-0-0------0-0-3~-5~-------|
   S S S  E.   S S S S S           S S S E.   S S E  E  E  E

Post-Chorus 1
G|-----------------------------------------|    G|-------------------------------|
D|-----------------------------------------| x3 D|-------------------------------|
A|-10-10-10-10-10-10-10-10-5-5-5-5-5-5-5-5-|    A|-10-10-10-10-10-10-10-10-10----|
D|-----------------------------------------|    D|-------------------------------|
    S  S  S  S  S  S  S  S S S S S S S S S          S  S  S  S  S  S  S  S  S

Verse 2
G|-------------------------------------------------|
D|-------------------------------------------------| x3
A|-------------------------------------------------|
D|-11-11-11-11-11-11-11-11-11-11-11-11-11-11-11-11-|
    S  S  S  S  S  S  S  S  S  S  S  S  S  S  S  S

G|---------------------------|
D|---------------------------|
A|---------------------------|
D|-10\\\3///10~~-10~-10~-10~-|
    Q   Q    Q    T.  T.  T.

Verse 3
G|-------------------------------------------------|
D|-------------------------------------------------| x3
A|-------------------------------------------------|
D|-11-11-11-11-11-11-11-11-11-11-11-11-11-11-11-11-|
    S  S  S  S  S  S  S  S  S  S  S  S  S  S  S  S

G|--------------------------|
D|--------------------------|
A|--------------------------|
D|-10\\\3///10~~-10-10-10---|
   Q    Q    Q    S  S  S

Chorus 2
G|-------------------------------|--------------------------------|
D|-------------------------------|--------------------------------| x2
A|-------10b/\---------8~-----8~-|-------7\\\---------3h5-----5h7-|
D|-0-0-0-------0-0-0-0----0-0----|-0-0-0------0-0-0-0-----0-0-----|
   S S S  E.   S S S S E  S S E    S S S E.   S S S S S S S S S S

G|-------------------------------|--------------------------------|
D|-------------------------------|--------------------------------| x2
A|-------10\\\---------8---------|-------7\\\---------3h5-----5h7-|
D|-0-0-0-------0-0-0-0-----------|-0-0-0------0-0-0-0-----0-0-----|
   S S S  E.   S S S S S           S S S E.   S S S S S S S S S S

G|-------------------------------|----------------------------|
D|-------------------------------|----------------------------| x2
A|-------10\\\---------3---------|-------7\\\-----------3~-5~-|
D|-0-0-0-------0-0-0-0-----------|-0-0-0------0-0-3~-5~-------|
   S S S  E.   S S S S S           S S S E.   S S E  E  E  E

Bridge 1
G|-----------------------------------------|
D|-----------------------------------------| x4
A|-8-------9----8----10-9-8----8----9-8----|
D|---11-10---11---11--------11---11-----11-|
   S  S  S S  S S  S  S S S  S S  S S S  S

G|---------------------------------------|
D|---------------------------------------|
A|-10-9-8-10-9-8-10-9-8-10-9-8-10-9-8----|
D|------------------------------------11-|
    S S S  S S S  S S S  S S S  S S S  S

G|-------------------------------|
D|-------------------------------| x2
A|-8-------9----8----8----9-8----|
D|---11-10---11---11---10-----11-|
   S  S  S S  S S  S S  S S S  S

G|-----------------------------------------|
D|-----------------------------------------| x2
A|-8-------9----8----10-9-8----8----9-8----|
D|---11-10---11---11--------11---11-----11-|
   S  S  S S  S S  S  S S S  S S  S S S  S

Bridge 2
G|---------------------------------|------------------------------------|
D|-----------------5-5-5-6-3-3-----|------------------------------3-----| x4
A|-5-5-5-5-5-5-5-5-------------5-5-|-3-3-3-3-3-5-5-5-0-0-0-0-0-5-----5--|
D|---------------------------------|------------------------------------|
   S S S S S S S S S S S S S S S S   S S S S S S S S S S S S S S  S  S

G|---------------------|---------------------------------|
D|---------------------|-10------10--12--14--12--14--15--|
A|-7--8--10--8--10--12-|-----12--------------------------|
D|---------------------|---------------------------------|
   E  E   E  E   E   E   E   E    E   E   E   E   E   E

G|---------------------------|---------------------------------|
D|---------------------------|-----10--12--10--12--13--14--15--| x3
A|-5--7--8--7--8--10--12--10-|-12------------------------------|
D|---------------------------|---------------------------------|
   E  E  E  E  E   E   E   E   E    E   E   E   E   E   E   E

G|---------------------------------------------------------|
D|-0-17b/\~~-0-17b/\~~-0-17b/\~~-0-17b/\-0-17b/\-0-17b/\-0-| x3
A|---------------------------------------------------------|
D|---------------------------------------------------------|
   S  E      S  E      S  E      S  S    S  S    S  S    S

G|-----------------------------------------------|
D|-0-17b/\~~-0-17b/\~~-0-17b/\~~-----------------|
A|-----------------------------------------------|
D|---------------------------------3-3-3-3-5-0---|
   S  E      S  E      S  E        S S S S S S

Outro
G|-------------------------------------|---------------------------------|
D|-------------------------------------|---------------------------------|
A|-------------------------------------|---------------------------------|
D|-0-0-0-0~~-0-0-10h12-0-0-10h12-0-0---|-0-0-0-0~~-0-0-3h5-5-5-3h5-0-----|
   S S S E   S S  S  S S S  S  S S S     S S S E   S S S S S S S S S

G|-------------------------------------|---------------------------------|
D|-------------------------------------|---------------------------------|
A|-------------------------------------|---------------------------------|
D|-0-0-0-0~~-0-0-10h12-0-0-10h12-0-0---|-0-0-0-0-------------------------|
   S S S E   S S  S  S S S  S  S S S     S S S S

G|-------------------------------------|---------------------------------|
D|-------------------------------------|---------------------------------|
A|-------------------------------------|---------------------------------|
D|-0-0-0-0~~-0-0-10h12-0-0-10h12-0-0---|-0-0-0-0~~-0-0-3h5-5-5-3h5-0-----|
   S S S E   S S  S  S S S  S  S S S     S S S E   S S S S S S S S S

G|-------------------------------------|---------------------------------|
D|-------------------------------------|---------------------------------|
A|-------------------------------------|---------------------------------|
D|-0-0-0-0~~-0-0-10h12-0-0-10h12-0-0---|-0-0-0-0~~-0-0-3h5-5-5-3h5-------|
   S S S E   S S  S  S S S  S  S S S     S S S S   S S S S S S S S

Ending
G|-------------------------------------------------|
D|-------------------------------------------------| x2
A|-------------------------------------------------|
D|-0-0-0-0-----0-0-0-0-----0-0-0-0-----0-0-0-0-----|
   S S S S     S S S S     S S S S     S S S S
Suggest correction
Give kudos to tab author, rate the tab!
1 2 3 4 5
comments
print report bad tab
guest
You may want to rate the tab now too:
select rating
Wanna post a correction for this tab? Suggest correction