Oops, an error
Loading. Please wait.

Bulletproof tab

981 views 1 this week
no commentswrite comment
1 2 3 4 5
1 last vote to show rating
add to favorites
×
Save as Personal and add changes to this tab that will be seen only by you. Learn more ›
×
You can save this tab as Personal to edit and correct it or add notes. All changes will be seen only by you. Learn more »
launch autoscroll
font size
0
reset
how to read this tab
guitar tuner
edit
Autoscroll
slow
fast
+/-
esc
set tempo
stop
Tabbed by: Joshua Garcia (joshuag523@aol.com)

Tabs for the song: Bulletproof by Before Their Eyes
Please rate and let me know if you have any corrections. Thank you.


Tuning: Drop C# (C# G# C# F# A# D#)


Intro
Guitar 1/2:
D#||---------------------|
A#||---------------------|
F#||---------------------|
C#||--8------7-----------|
G#||--5------4-----------|
C#||----0000---0000-3/6--|
        ....   ....


Verse
Guitar 1/2:
D#||-----------------------------------|-------------------------------------|
A#||-----------------------------------|-------------------------------------|
F#||-----------------------------------|-------------------------------------|
C#||----------------7-8-----5----------|----------------7-8------7-----------| x2
G#||------------1/5-----5-----4--------|------------1/5---5------4-----------|
C#||--0---2-1-0-----------0-----0-3-2--|--0---2-1-0---------0000---0000-3/6--|
                          .     .                           ....   ....

D#||-------------------------------------------------------------------------|
A#||-------------------------------------------------------------------------|
F#||-------------------------------------------------------------------------|
C#||-------------------------------------------------------------------------|
G#||----------------------5-------------------------------------5------------|
C#||--1p0-0000-0h6-0000-3---0000-3-2-000000-1p0-0000-0h6-0000-3---0000-3p2---|
          ....     ....     ....     ......     ....     ....     ....

D#||-------------------------------------------------------------------------------|
A#||-------------------------------------------------------------------------------|
F#||-------------------------------------------------------------------------------|
C#||-------------------------------------------------------------------------------|
G#||----------------------5-------------------------------------5------------------|
C#||--1p0-0000-0h6-0000-3---0000-3p2-000000-1p0-0000-0h6-0000-3---0000-3p2-000000--|
          ....     ....     ....     ......     ....     ....     ....     ......



Pre-Chorus
Guitar 1:
D#||-------|--------|--------|------------|
A#||--13~--|---13~--|---13~--|---13~---X--|
F#||--10~--|---12~--|---10~--|---12~---X--|
C#||-------|--------|--------|------------|
G#||-------|--------|--------|------------|
C#||-------|--------|--------|------------|


Guitar 2:
D#||------|--------|-------|------------|
A#||------|--------|-------|------------|
F#||------|--------|-------|------------|
C#||--0~--|---10~--|---0~--|---10~---X--|
G#||--0~--|---10~--|---0~--|---10~---X--|
C#||--0~--|---10~--|---0~--|---10~---X--|



Chorus
Guitar 1:
D#||---------------------------------------------|---------------------------------------------|
A#||---------------------------------------------|---------------------------------------------|
F#||--14-------------------14--------------------|---------------------------------------------|
C#||-----12-0-10-0-10-12-0----12-0-10-0-10-12-0--|--15-14-0-14-0-14-15-0-15-14-0-14-0-14-15-0--| x2
G#||---------------------------------------------|---------------------------------------------|
C#||---------------------------------------------|---------------------------------------------|


Guitar 2:
D#||---------------------------------------------------------------------------------------|
A#||---------------------------------------------------------------------------------------|
F#||---------------------------------------------------------------------------------------|
C#||--0000000000000-7-10--101010101010101010101010-5-8--888888888888-3-7--77777777-111111--| x2
G#||--0000000000000-7-10--101010101010101010101010-5-8--888888888888-3-7--77777777-111111--|
C#||--0000000000000-7-10--101010101010101010101010-5-8--888888888888-3-7--77777777-111111--|



Verse
Guitar 1/2:
D#||-----------------------------------|-------------------------------------|
A#||-----------------------------------|-------------------------------------|
F#||-----------------------------------|-------------------------------------|
C#||----------------7-8-----5----------|----------------7-8------7-----------| x2
G#||------------1/5-----5-----4--------|------------1/5---5------4-----------|
C#||--0---2-1-0-----------0-----0-3-2--|--0---2-1-0---------0000---0000-3/6--|
                          .     .                           ....   ....

D#||-------------------------------------------------------------------------|
A#||-------------------------------------------------------------------------|
F#||-------------------------------------------------------------------------|
C#||-------------------------------------------------------------------------|
G#||----------------------5-------------------------------------5------------|
C#||--1p0-0000-0h6-0000-3---0000-3-2-000000-1p0-0000-0h6-0000-3---0000-3p2---|
          ....     ....     ....     ......     ....     ....     ....

D#||------------------------------------------------------------------|
A#||------------------------------------------------------------------|
F#||------------------------7-----------------------------------------| x2
C#||----------------------0---0---------------------------------------|
G#||-----------------------------------------------------------5------|
C#||--1p0--0-0-0-0-0-0-0----------1--1p0--0-0-0-0-0-0-0--6-3-0---3-0--|
           . . . . . . .                  . . . . . . .

D#||--------------------------------------------------------|
A#||--------------------------------------------------------|
F#||--------------------------------------------------------|
C#||------0-0-0--------------00000---0---0---00---0-0-0-0---|
G#||------0-0-0--------------00000---0---0---00---0-0-0-0---|
C#||--1---0-0-0-------0--0---00000---0---0---00---0-0-0-0---|
          . . .              .....   .   .   ..   . . . .



Chorus
Guitar 1:
D#||---------------------------------------------|---------------------------------------------|
A#||---------------------------------------------|---------------------------------------------|
F#||--14-------------------14--------------------|---------------------------------------------|
C#||-----12-0-10-0-10-12-0----12-0-10-0-10-12-0--|--15-14-0-14-0-14-15-0-15-14-0-14-0-14-15-0--| x2
G#||---------------------------------------------|---------------------------------------------|
C#||---------------------------------------------|---------------------------------------------|


Guitar 2:
D#||---------------------------------------------------------------------------------------|
A#||---------------------------------------------------------------------------------------|
F#||---------------------------------------------------------------------------------------|
C#||--0000000000000-7-10--101010101010101010101010-5-8--888888888888-3-7--77777777-111111--| x2
G#||--0000000000000-7-10--101010101010101010101010-5-8--888888888888-3-7--77777777-111111--|
C#||--0000000000000-7-10--101010101010101010101010-5-8--888888888888-3-7--77777777-111111--|



Breakdown
Guitar 1:
D#||-------------------------------------------------------|
A#||-------------------------------------------------------|
F#||-------------------------------------------------------|
C#||--0~--00~-0~-00000~----0000000~0000000~--0~--00~--0-0--|
G#||--0~--00~-0~-00000~----0000000~0000000~--0~--00~--0-0--|
C#||--0~--00~-0~-00000~----0000000~0000000~--0~--00~--0-0--|
      .   ..  .  .....     ....... .......   .   ..   . .

D#||---------------------------------------------------------------------|
A#||---------------------------------------------------------------------|
F#||---------------------------------------------------------------------|
C#||--0---00--0~-00000-----0000000~0000000---0---00---0-0---0000000---0--|
G#||--0---00--0~-00000-----0000000~0000000---0---00---0-0---0000000---0--|
C#||--0---00--0~-00000-----0000000~0000000---0---00---0-0---0000000---0--|
      .   ..  .  .....     ....... .......   .   ..   . .   .......   .

D#||-----------------------------------------------------------------|
A#||-----------------------------------------------------------------|
F#||-----------------------------------------------------------------|
C#||--0---00--0~-00000-----0000000~0000000---0---00---0-0---0000000--|
G#||--0---00--0~-00000-----0000000~0000000---0---00---0-0---0000000--|
C#||--0---00--0~-00000-----0000000~0000000---0---00---0-0---0000000--|
      .   ..  .  .....     ....... .......   .   ..   . .   .......


Guitar 1:
D#||------------------------------------------------------------------------|
A#||------------------------------------------------------------------------|
F#||------------------------------------------------------------------------|
C#||--00000000----------------------------------0000000000~0~0~------0-0-0--| x2
G#||--00000000----------------------------------0000000000~0~0~------0-0-0--|
C#||--00000000-1p0--0--0--0-00---0--1-1---1-1---0000000000~0~0~------0-0-0--|
      ........                                  .......... . .       . . .


Guitar 2:
D#||------------------------------------------------------------------------------------|
A#||------------------------------------------------------------------------------------|
F#||--77777777777777777777777777777777101010101010101010101010101010106666666666666666--|
C#||------------------------------------------------------------------------------------|
G#||------------------------------------------------------------------------------------|
C#||------------------------------------------------------------------------------------|


D#||------------------------------------------------------------------------|
A#||----------------------------------11111111111111111111111111111111-10~--|
F#||--77777777777777777777777777777777--------------------------------------|
C#||------------------------------------------------------------------------|
G#||------------------------------------------------------------------------|
C#||------------------------------------------------------------------------|
                                     ^ (11's, not 1's)

Guitar 2 (Dubbed):
D#||--------------------------------------------------------------------|
A#||--------------------------------------------------------------------|
F#||--------------------------------------------------------------------|
C#||--7777777777777777777777777777777788888888888888888888888888888888--|
G#||--------------------------------------------------------------------|
C#||--------------------------------------------------------------------|


D#||------------------------------------------------------|
A#||------------------------------------------------------|
F#||------------------------------------------------------|
C#||--55555555555555555555555555555555333333333333-3-3~---|
G#||------------------------------------------------------|
C#||------------------------------------------------------|



Interlude
Guitar 1:
D#||------|-------|
A#||------|-------|
F#||------|-------|
C#||--8~--|--10~--|
G#||--8~--|--10~--|
C#||--8~--|--10~--|


Guitar 2:
D#||---------------------------------------------|---------------------------------------------|
A#||---------------------------------------------|---------------------------------------------|
F#||--14-------------------14--------------------|---------------------------------------------|
C#||-----12-0-10-0-10-12-0----12-0-10-0-10-12-0--|--15-14-0-14-0-14-15-0-15-14-0-14-0-14-15-0--|
G#||---------------------------------------------|---------------------------------------------|
C#||---------------------------------------------|---------------------------------------------|



Chorus
Guitar 1:
D#||---------------------------------------------------------------------------------------|
A#||---------------------------------------------------------------------------------------|
F#||---------------------------------------------------------------------------------------|
C#||--0000000000000-7-10--101010101010101010101010-5-8--888888888888-3-7--77777777-111111--| x2
G#||--0000000000000-7-10--101010101010101010101010-5-8--888888888888-3-7--77777777-111111--|
C#||--0000000000000-7-10--101010101010101010101010-5-8--888888888888-3-7--77777777-111111--|


Guitar 2:
D#||---------------------------------------------|---------------------------------------------|
A#||---------------------------------------------|---------------------------------------------|
F#||--14-------------------14--------------------|---------------------------------------------|
C#||-----12-0-10-0-10-12-0----12-0-10-0-10-12-0--|--15-14-0-14-0-14-15-0-15-14-0-14-0-14-15-0--| x2
G#||---------------------------------------------|---------------------------------------------|
C#||---------------------------------------------|---------------------------------------------|



Verse/Outro
Guitar 1:
D#||-----------------------------------|-------------------------------------|
A#||-----------------------------------|-------------------------------------|
F#||-----------------------------------|-------------------------------------|
C#||----------------7-8-----5----------|----------------7-8------7-----------| x2
G#||------------1/5-----5-----4--------|------------1/5---5------4-----------|
C#||--0---2-1-0-----------0-----0-3-2--|--0---2-1-0---------0000---0000-3/6--|
                          .     .                           ....   ....


Guitar 1/2
D#||-----|
A#||-----|
F#||-----|
C#||--0--|
G#||--0--|
C#||--0--|





Tablature Legend
----------------
 h   hammer-on
 p   pull-off
 b   bend
 pb  pre-bend
 r   release bend
 ~   hold / vibrato
 .   palm mute
 /   slide up
 \   slide down
 *   pinch harmonic
 '   natural harmonic
 x   mute note
 T   tap

            
            
Suggest correction
Creating personal tab
Creating personal tab
You can edit any tab online and save it as your Personal.

You can edit, replace or remove any tab part or add personal notes – all changes will be seen only by you.

Personal tabs can be accessed anytime from any device, even offline.
Learn more »
Give kudos to tab author, rate the tab!
1 2 3 4 5
comments
print report bad tab
guest
You may want to rate the tab now too:
select rating
Wanna post a correction for this tab? Suggest correction